Hatebreed Tabs

Perseverence

1 versions

TAB

            Perseverence Tab by Hatebreed


Perseverence by Hatebreed
Tabbed by Jason

Tuning Drop C (C-G-C-F-A-D)

This song is only 2 riffs (3 if you count the intro)-simple.

|-------------------|------------------------------|
|-------------------|------------------------------|
|-----------5-7-8---|------------------------------|
|-1---------5-7-8-0-|-8p7--0--3-0-0--7p6--0--3-0-0-|
|-1-0-0-0-0-3-5-6-0-|-8p7--0--3-0-0--7p6--0--3-0-0-|
|-1-0-0-0-0-------0-|-8p7--0--3-0-0--7p6--0--3-0-0-|
pm  . . . .

|--------|-----------------|
|play x6-|-----------------|
|--------|-----------5-7-8-|
|-1------|-1---------5-7-8-|
|-1-0-0--|-1-0-0-0-0-3-5-6-|
|-1-0-0--|-1-0-0-0-0-------|
pm  . . .    . . . .    

Added On December 4th, 2013

SHARE

Comments

blog comments powered by Disqus

ADVERTISEMENT