Hatebreed Tabs

This Is Now

5 versions

TAB

            This Is Now Tab by Hatebreed


Hatebreed
This is Now
Rise of Brutality
Tabbed by: Robert Walden
Tuning: CGCFAD
Palm-mute=*

Intro/Chorus
---------------------------------------------
---------------------------------------------
---------------------------------------------
---------------------------------------------
-3-0--3-4-3-0-0--1-3-1-0-0--3-4-3-0-0-0-0-0-0
-3-0--3-4-3-0-0--1-3-1-0-0--3-4-3-0-0-0-0-0-0
            *          *          * * * * * *
Verse-hold chords
--------------
--------------
--------------
-7-----6-----8
-5-----4-----8
-------------8

Bridge
--------------------------------------------
--------------------------------------------
--------------------------------------------
--------------------------------------------
-0-----0---------0-----0-----0-----0---0----
-0-000-0-000-000-0-000-0-000-0-000-0-0-0-000
   ***   *** ***   ***   ***   ***   *   ***
Fill
----------
----------
----------
----------
-7-6-3---6
-7-6-3-0-6
       *
Solo
--------------------------
--------------------------
-7--7-7h8-5-----7--7-7h8-4
--------------------------
--------------------------
--------------------------

Outro
--------
--------
--------
--------
--------
-000-000
 *** ***

Thats it, just piece it together. I copied this all down from the music
video on tv, as soon as i get the cd there will be way more tabs to come.
IM me at kornfellow91 or leave a correction in the correction box above, enjoy.    

Added On December 4th, 2013

SHARE

Comments

blog comments powered by Disqus

VERSIONS

ADVERTISEMENT