Have A Nice Life Tabs

Bloodhail

1 versions

TAB

            Title: Bloodhail
Artist: Have a Nice Life
Album: Deathconsciousness
Tabbed by: Mathias
Tuning: EADGBE (standard)
Tempo: 80 seems alright

This is the riff that is played on guitar throughout most of the song.

      E     Ab          B                       E
E |-------------------------------------|    |--------------0------------|
B |o-----------------------------------o|    |-----------0-----0---------|
G |------1------------------------------| 2x |-----1---------------------|
D |---2---------------------------------|    |--2-----2------------------|
A |o-------------6-----------9---------o|    |---------------------------|
E |----------4-----------/7-------------|    |---------------------------|
Let all notes ring

Bass:

G|----------------------------------------------------------------|
D|----------------------------------------------------------------|
A|-------------------------4-2-1----------------------------------|
E|-0--0-0-0-0-0-0-0-0-0-0--------4-4--4-4-4-4-4-4-4-4-4-4-4-4-2-2-|

Alternatively, you can play it exclusively on the E-string: 

E|-0--0-0-0-0-0-0-0-0-0-0-9-7-6-4-4--4-4-4-4-4-4-4-4-4-4-4-4-2-2--|

I am in the process of making a guitar pro-tab for Bloodhail and I would love some 
help with the drums.    

Added On December 16th, 2013

SHARE

Comments

blog comments powered by Disqus

ADVERTISEMENT