Hawk Nelson Tabs

Show

1 versions

TAB

            Show Tab by Hawk Nelson


Hawk Nelson
"The Show"
Tabbed by Andrew
Tuning Standard

Intro:
E-------------------------------------------------------------------------------|
B-------------------------------------------------------------------------------|
G----8-6-6--------------------------------------------------x2------------------|
D-55-------10-8-----------------------------------------------------------------|
A---------------10-10-10-11-10-11-10-11-11-11-11-10-10--------------------------|
E-------------------------------------------------------------------------------|

Verses: Play this patteren repeatedly
E-----------------------------------|
B-----------------------------------|
G-----------------------------------|
D-5-55/66-8-8-666-5-55/66-8-8-666---|
A-5-55/66-8-8-666-5-55/66-8-8-666---|
E-3-33/44-6-6-444-3-33/44-6-6-444---|

Chorus's: Play this pattern repeatedly   /= slide up
E-----------------------------------|
B-----------------------------------|
G-----------------------------------|
D-5-55/66-3-3-666-5-55/66-3-3-666---|
A-5-55/66-3-3-666-5-55/66-3-3-666---|
E-3-33/44-1-1-444-3-33/44-1-1-444---|

Outro: "It's a party"
E----------------------------------------------------------------------------|
B----------------------------------------------------------------------------|
G----------------------------------------------------------------------------|
D-----------------------------------------------3-5-6-----x3-----------------|
A--4-4-4-6-4-6-4--4-4-4-6-4-6-4--4-4-4-6-4-6-4--3-5-6------------------------|
E-----------------------------------------------1-3-4------------------------|

I'm 100% for sure on this tab.  I know it looks confusing, but only at first.  After you 
it with the music, you can really see how it all comes together.  The beggining is the 
fun to play.  Hope you like it.    

Added On December 4th, 2013

SHARE

Comments

blog comments powered by Disqus

ADVERTISEMENT