Hawthorne Heights Tabs

Rescue Me

2 versions

TAB

            First tab ever... go easy on me please ^_^. I know its probably reaaaalllllyyyy wrong, 
I know this is only JT's part... I hope it at least helps you play the song! Constructive 
is greatly appreciated!


Intro:

E---0----000-|
B-3-0-33-000-|
G-4-4-44-444-|
D-0-0-00-000-|
A------------|
E------------|

Pre-Verse:

E------------------|
B------------------|
G------------------|        Two
D-9-7--4-5---------|       Times
A-9-7--4-5---------|
E-7-5--2-3---------|

Verse:
(Strum Pattern not shown)

E---------|
B---------|
G---------|
D---------|
A-9-7-4-5-|
E-7-5-2-3-|

Chorus:
(Once again, strum pattern not shown, lolol.)

E-----------|
B-----------|
G------4----|
D-12-7-4-5~-|
A-12-7-2-5~-|
E-10-5---3~-|

Verse:
(Comes in later this time)

E---------------------------------|
B---------------------------------|
G---------------------------------|
D--(x2)-(x2)-(x2)-(x2)------------|
A-99-9-77-7-44-4-55-5~-4--- 5-----|
E-77-7-55-5-22-2-33-3~-2(x4)------|3(x4)
  **   **   **   **    *    *

Repeat Chorus

Bridge Part 1 (PM'ed):

E--------------------------|
B--------------------------|
G--------------------------|
D--------------------------|
A-9-----7-----4-----5------|
E-7(x4)-5(x4)-2(x4)-3(x4)--|

Bridge Part 2 (Not sure about this part... just repeating the pre-verse is passable to 
least play the song with):


E----------------|
B----------------|
G----------------|
D-9-7--4-5----5~-|
A-9-7--4-5----5~-|
E-7-5--2-3----3~-|

(Repeat chorus clean for Bride Part 3)

Then repeat the chorus one last time, and that's it!    

Added On December 16th, 2013

SHARE

Comments

blog comments powered by Disqus

VERSIONS

ADVERTISEMENT