Hawthorne Heights Tabs

Where Can I S Myself In The Ears

4 versions

TAB

            Where Can I Stab Myself In The Ears Tab by Hawthorne Heights


  just so you know, i am only 12 and this is the first thing i've 
ever tabbed besides my bands songs. i learned this by ear becuase i
can't find a hawthorne heights tab book and i have that ability
because i love that band so much!


guitar 1
|-----12h13p12h15-12h13p12h15-xabout 6or7 times--|
|--------------15----------15--------------------|
|------------------------------------------------|
|------------------------------------------------|
|------------------------------------------------|
|------------------------------------------------|

guitar 2
|------------------------------------------------|
|------------------------------------------------|
|--------7-55----2-------------------------------|
|---2----7-55----2------------repeatx2-----------|
|---2----5-33----0-------------------------------|
|---0--------------------------------------------|

verse 1
|------------------------------------------------|
|------------------------------------------------|
|-------777755552222-----------------------------|
|-222222777755552222----------repeat--how many---|
|-222222555533330000----------times--------------|
|-000000-----------------------------------------|


prechorus:
have'nt really got it down yet!

chorus
|------------------------------------------------|
|------------------------------------------------|
|-22222222--77-77/22-22/55-----------------------|
|-22222222--77-77/22-22/55-----------------------|
|-00000000--55-55/00-00/33-----------------------|
|------------------------------------------------|

verse2

|-------------------------------------------------|
|-------------------------------------------------|
|-------------------------------------------------|
|---0---0---0---02--------------------------------|
|---0---0---0---02------------repeat-how-many-----|
|--x0--x0--x0--x02--------------------------------|

chorus

i forgot the rest so get over it!    

Added On December 4th, 2013

SHARE

Comments

blog comments powered by Disqus