Headstones Tabs

Above Ground Swimming Pools

1 versions

TAB

            First Verse                                        x6
E----------------------------------------------------|
B----------------------------------------------------|
G-7-7-7-7-7-7----------------------------7-7-7-7-7-7-|
D-7-7-7-7-7-7--7-7-7-7-7-7--5-5-5-5-5-5--7-7-7-7-7-7-|
A-5-5-5-5-5-5--7-7-7-7-7-7--5-5-5-5-5-5--5-5-5-5-5-5-|
E--------------5-5-5-5-5-5--3-3-3-3-3-3--------------|

Second Verse                                       x9
E----------------------------------------------------|
B----------------------------------------------------|
G-7-7-7-7-7-7----------------------------7-7-7-7-7-7-|
D-7-7-7-7-7-7--7-7-7-7-7-7--5-5-5-5-5-5--7-7-7-7-7-7-|
A-5-5-5-5-5-5--7-7-7-7-7-7--5-5-5-5-5-5--5-5-5-5-5-5-|
E--------------5-5-5-5-5-5--3-3-3-3-3-3--------------|

Chorus                                           x2
E--------------------------------------------------|
B--------------------------------------------------|
G-7--7-7-7-7-7--------------7--7-7-7-7-7-7-7-7-7-7-|
D-7--7-7-7-7-7-5--5-5-5-5-5-7--7-7-7-7-7-7-7-7-7-7-|
A-5--5-5-5-5-5-5--5-5-5-5-5-5--5-5-5-5-5-5-5-5-5-5-|
E--------------3--3-3-3-3-3------------------------|

Third Verse                                        x6
E----------------------------------------------------|
B----------------------------------------------------|
G-7-7-7-7-7-7----------------------------7-7-7-7-7-7-|
D-7-7-7-7-7-7--7-7-7-7-7-7--5-5-5-5-5-5--7-7-7-7-7-7-|
A-5-5-5-5-5-5--7-7-7-7-7-7--5-5-5-5-5-5--5-5-5-5-5-5-|
E--------------5-5-5-5-5-5--3-3-3-3-3-3--------------|


Chorus (repeat till fade out )
E--------------------------------------------------|
B--------------------------------------------------|
G-7--7-7-7-7-7--------------7--7-7-7-7-7-7-7-7-7-7-|
D-7--7-7-7-7-7-5--5-5-5-5-5-7--7-7-7-7-7-7-7-7-7-7-|
A-5--5-5-5-5-5-5--5-5-5-5-5-5--5-5-5-5-5-5-5-5-5-5-|
E--------------3--3-3-3-3-3------------------------|    

Added On December 16th, 2013

SHARE

Comments

blog comments powered by Disqus

ADVERTISEMENT