Headstones Tabs

Do That Thing

1 versions

TAB

            Main Riff/Verse
E-------------------------------------------------------|
B-------------------------------------------------------|
G--5--2-x-x-x-x-5--2-x-x-x-x-5------------5-------------|
D--5--2-x-x-x-x-5--2-x-x-x-x-5--5-x-x-x-x-5--5-x-x-x-x--|
A--3--0-x-x-x-x-3--0-x-x-x-x-3--5-x-x-x-x-3--5-x-x-x-x--|
E-------------------------------3-x-x-x-x----3-x-x-x-x--|

Pre-Chorus (Same Song He always sings...)
E---------------------------------|
B---------------------------------|
G--7----2----5----------7----2----|
D--7----2----5-----5----7----2----|
A--5----0----3-----5----5----0----|
E------------------3--------------|

Chorus (Can't get to heaven...)
E------------------------------------|
B------------------------------------|
G--5-5-5-5-----------7-7-7-7-7-7-7-7-|
D--5-5-5-5--5-5-5-5--7-7-7-7-7-7-7-7-|
A--3-3-3-3--5-5-5-5--5-5-5-5-5-5-5-5-|
E-----------3-3-3-3------------------|


___________________________________________________________________

Song is played in 4/4.    

Added On December 16th, 2013

SHARE

Comments

blog comments powered by Disqus

ADVERTISEMENT