Headstones Tabs

Reframed

1 versions

TAB

            REFRAMED (THE HEADSTONES)
tabbed by Greg Hatchard, silent movie star and 
part-time dog-catcher.

legend:
b   = bend
/   = slide up
:/: = repeat last pattern
[X] = natural harmonic
/// = pound on same chord indicated # of times


intro/break/outro lick
  E5		 G5	   D5	     A5		    E5
|-------|-----------------------------------------------|-----|
|-------|-----------------------------------------------|-----|
|-------|--------7---------7---------6---7-6------------|-:/:-|
|-6---6-|--6-7-9-----5-7-9-----5-7-9---------9---7---6--|-----|
|-------|-----------------------------------------------|-----|
|-------|-----------------------------------------------|-----|

verse
  Em   G5add13  Asus2  G5add13	       Em  G5add13  Dsus2  Asus2
|-0-----0--------0------0------|-----|-0-----0-------0------0------|-----|
|-0-----3--------0------3------|-----|-0-----3-------3------0------|-----|
|-0-----0--------2------0------|-:/:-|-0-----0-------2------2------|-:/:-|
|-2-----0--------2------0------|-----|-2-----0-------0------2------|-----|
|-2--------------0-------------|-----|-2--------------------0------|-----|
|-0-----3---------------3------|-----|-0-----3---------------------|-----|

chorus
  E5          G5          D5           A5
|-----------|-3----------|-----------|-----------|-----|
|-5---------|-3----------|-3---------|-----------|-----|
|-4---------|-0----------|-2---------|-2---------|-:/:-|
|-2-///////-|-0-///////--|-0-///////-|-2-///////-|-III-|
|-2---------|------------|-----------|-0---------|-----|
|-0---------|-3----------|-----------|-----------|-----|
|                                                      |
|-----------|------------|-----------|-----------|-----|
|-----------|------------|-----------|-----------|-----|
|-9---------|-12---------|-7---------|-----------|-:/:-|
|-9-///////-|-10-///////-|-7-///////-|-7-///////-|-III-|
|-7---------|-10---------|-5---------|-7---------|-----|
|-----------|------------|-----------|-5---------|-----|


transition lick
  NC
|---------------------------|
|-12b14-12b14-14------------|
|-12b14-12b14-14-12---------|
|-------------------14-[12]-|
|---------------------------|
|---------------------------|


pre-solo
  E     D    E     D 
|------------------------|
|------------------------|
|-9-9-9-7----9-9-9-7-----|
|-9-9-9-7----9-9-9-7-----|
|-7-7-7-5----7-7-7-5-----|
|------------------------|


solo
  E              G                        A      
|-----------------------------------------------------------------|
|-----------------------------------------------------------------|
|-----------------------------------------------------------------|
|-14-14---12--12--------------------------------------------------|
|-----------14---12h14--12h14p12--10--12--12h14--12h14p12--10-----|
|--------------------------------------------------------------10-|


  G                       E                   G
|-----------------------------------------------------------------|
|-----------------------------------------------------------------|
|-----------------------------------------------------------------|
|----------------------12-14---14-14---12--12---------------------|
|----------10---/12-14-------------------14---12h14--12h14p12--10-|
|-12-12-12--------------------------------------------------------|

      D                          A                       E    
|-----------------------------------------------------------------|
|-----------------------------------------------------------------|
|-----------------------------------------------------------12-12-|
|--------------------------------------12----12h14-14---/14-------|
|-12--12h14--12h14p12--10----10--12/14----14----------------------|
|-------------------------12--------------------------------------|

                   G                          D
|-----------------------------------------------------------------|
|-----------------------------------------------------------------|
|----12------12-------12-12----12------12-------12-12----12-------|
|-14------14------/14-------14------14------/14-------14------14--|
|-----------------------------------------------------------------|
|-----------------------------------------------------------------|

      A                          E                       G   D
|-------------------------------|----12-12----12-----12-|---------|
|-------------------------------|-15-------15------15---|---------|
|-12--14b16b14p12--12-----12----|-----------------------|---:/:---|
|----------------14----14----14-|-----------------------|---II----|
|-------------------------------|-----------------------|---------|
|-------------------------------|-----------------------|---------|

  A
|-----------------------------------------------------------------|
|-14-12-14b16--14p12---12-----------------------------------------|
|-14-12-14b16--14p12---12-----------------------------------------|
|-------------------14----14--------------------------------------|
|-----------------------------------------------------------------|
|-----------------------------------------------------------------|


bridge

E5 G5 A5 G5
E5 G5 A5 G5
E5 G5 A5 G5
E5 G5 A5 A5 E5 G5    

Added On December 16th, 2013

SHARE

Comments

blog comments powered by Disqus

ADVERTISEMENT