helmet Tabs

Its Easy To Get Bored

2 versions

TAB

            Its Easy To Get Bored Tab by Helmet


Dropped-D Tuning

I did all the main rhythm parts for this song, there's one little solo bit
and some noise at the end that isn't in there. Just wing something in D, I
suppose.

Intro Riff

 Artist: Helmet
 Album: Aftertaste
 Tabbed By: Simon Robson

E |------------------|
B |------------------|
G |------------------|
D |--0-5-7---5h7-7---|
A |--0-5-7---5h7-7---|
D |--0-5-7---5h7-7---|

Main Riff (same as Intro except for hammer-on at 5th fret)
E |------------------|
B |------------------|
G |------------------|
D |--0h5-7---5h7-7---|
A |--0h5-7---5h7-7---|
D |--0h5-7---5h7-7---|

Chorus Riff
E |--------------------------------|
B |--------------------------------|
G |--------------------------------|
D |-3-3-3-3-3-3-3--0--0-0-1--1-1---|
A |-3-3-3-3-3-3-3--0--0-0-1--1-1---|
D |-3-3-3-3-3-3-3--0--0-0-1--1-1---|

after "religious fervor that no one can ignore"
E |---------------------------------------|
B |---------------------------------------|
G |---------------------------------------|
D |-3-3-3-3-3-3-3-3-/-8-8-8-8-8-8-8-8-8---|
A |-3-3-3-3-3-3-3-3-/-8-8-8-8-8-8-8-8-8---|
D |-3-3-3-3-3-3-3-3-/-8-8-8-8-8-8-8-8-8---|    

Added On December 4th, 2013

SHARE

Comments

blog comments powered by Disqus

VERSIONS

ADVERTISEMENT