Henry Wolfe Tabs

Someone Else

1 versions

TAB

            By no means perfect, any and all corrections are greatly appreciated. 



Capo: 4

Into:


|--3---3-----3---2---2-----2---0---0-----0---2---2-----2-|
|----0-----0-------0-----0-------0-----0-------0-----0---|
|--------0-------------0-------------0-------------0-----|
|--------------------------------------------------------|
|--------------------------------------------------------|
|--------------------------------------------------------|



|--3---3-----3---2---2-----2---0---0-----0-------|
|----0-----0-------0-----0-------0-----0-----3---|
|--------0-------------0-------------0-----------|
|------------------------------------------------|
|------------------------------------------------|
|------------------------------------------------|

G                                 Am
I called a psychic on the phone today 
                    C           G
It's something I rarely do 
G                            Am
But for reasons that I can't explain 
             C               G
I feel I am splitting in two 


  C/G                     B7
I don't know who I have been 
Em7                         A7
There's a stranger in my skin 


C/G
I used to be somebody
Am
I used to be somebody 
                       G
Now I am someone else 

G
I took a look at my reflection 
            Am
I didn't recognize myself 
                           C       G
The person in the mirror was a shell 
G                                    Am
Hollow on the inside; as empty as a bell 
                           C        G
And I can hear it ringing out for miles around 

C/G                  B7
My friends say I need help 
Em7                 A7
But I know I'm not crazy 
 
                   C/G
I am only someone else 
                   G
I am someone else 

C/G
I used to be somebody 
Am
I used to be somebody 
                G
Now I am someone else 


 G G Am Am Am C G G (x2)

C/G                    B7
And time takes a toll
Em7                  
I feel the seasons change
A7
I hear the thunder roll

C/G
I used to be somebody 
Am
I used to be somebody 
                 G 
Now I am someone else

C/G
I used to be somebody 
Am
I used to be somebody 
                 G 
Now I am someone else


http://www.henrywolfe.com    

Added On December 16th, 2013

SHARE

Comments

blog comments powered by Disqus

ADVERTISEMENT