Hi-standard Tabs

This Is Love

1 versions

TAB

            Hi-Standard - This Is Love (Love is a Battlefield EP, 2001)
Tabbed by gogosega

You're going to find that the tab doesn't show
the strumming pattern, so you'll have to listen to
the song as you play along to find the correct
strumming pattern.

Intro (Repeat first bracket)
    A F#m Bm E     A  C# D Dm
E|-----2--2--0--|-----------5----------------------------|
B|--2--2--3--0--|--2--6--7--6----------------------------|
G|--2--2--4--1--|--2--6--7--7--------------7--9----------|
D|--2--4--4--2--|--2--6--7--7--7--6--4--2--7--9--7-------|
A|--0--4--2--2--|--0--4--5--5--7--6--4--2--5--7--7----2--|
E|-----2-----0--|--------------5--4--2--0--------5----0--|

Verse (Repeat first bracket)
                   A  C# D  Dm
E|--------------|-----------5--------------------------------|
B|--------------|--2--6--7--6--------------------------------|
G|--2-----4-----|--2--6--7--7------------------7--9----------|
D|--2--4--4--2--|--2--6--7--7------7--6--4--2--7--9--7-------|
A|--0--4--2--2--|--0--4--5--5------7--6--4--2--5--7--7----2--|
E|-----2-----0--|------------------5--4--2--0--------5----0--|

Bridge
   C# F#m C# F#m
E|-----2-----2-------------0-----|
B|--6--2--6--2-------------0-----|
G|--6--2--6--2-------------1--9--|
D|--6--4--6--4----4--6--7--2--9--|
A|--4--4--4--4----2--4--5--2--7--|
E|-----2-----2-------------0-----|

Verse (Repeat first bracket)
                   A  C# D  Dm
E|--------------|-----------5---------------------------------------|
B|--------------|--2--6--7--6---------------------------------------|
G|--2-----4-----|--2--6--7--7------------------7--9--11-6--7--9-----|
D|--2--4--4--2--|--2--6--7--7------7--6--4--2--7--9--11-6--7--9--7--|
A|--0--4--2--2--|--0--4--5--5------7--6--4--2--5--7--9--4--5--7--7--|
E|-----2-----0--|------------------5--4--2--0--------------------5--|    

Added On December 16th, 2013

SHARE

Comments

blog comments powered by Disqus

ADVERTISEMENT