Hikaru Utada Tabs

Never Let Go

1 versions

TAB

            Never Let Go Tab by Hikaru Utada


Never Let Go By Utada Hikaru
Album: First Love

Tabber: Jake Chen (Chen Man, OH YEAH)

Jap song from her album.....some french dood on the net told me about 
it, asked me to tab it by request and now here it is. Wasn't very hard
after I figured out the bass notes. 

Comments and questions please direct to darc_blade@hotmail.com


TUNING: DbADBGE, 
- To get Db, tune Low E string till the eighth fret is in tune 
  with the A string

- Riff played through the song

 E|-7---7--6---6--4---4--4--3-|
 B|-----------4---------------|
 G|----8-----4-------4--------|
 D|---9-------------6---------|
 A|---------------------------|
Db|-7------5------0---------2-|

- Riff played at 1:20 - 1:25
    
 E|---------------|
 B|---------------|
 G|---------------|
 D|---------------|
 A|---------------|
Db|-7-9-10--3-0-2-|    

Added On December 4th, 2013

SHARE

Comments

blog comments powered by Disqus

ADVERTISEMENT