Hikaru Utada Tabs

Sanctuary

2 versions

TAB

            Sanctuary Tab by Hikaru Utada


Sanctuary
Utada Hikaru
Kingdom Hearts II OST

Standard tuning
------------------------------------------------------
Notes:

This song has multiple sections and many of
the lyrics are played in reverse throughout the song.
I've done the best I could to piece it together so
it's a bit easier to follow.  I hope you enjoy.

Also, the lyrics surround by "[ ]" are reversed
in the recording.  Some of the chords over the lyrics,
mainly the backtracked ones are not accurately placed,
but they are the correct chords.  Just listen to the song
for proper timing.

EDIT:  "Fill parts corrected.  The slides are now more
        clear.

/ = Slide up
\ = slide down
------------------------------------------------------
Sanctuary

Intro:

(Over the "Ahh"s)
A  Amaj7

A  Amaj7
[I need more affection than you know]

   (Fill)
E|--9\5---/7\4-------|
B|-------------------|
G|-------------------|
D|-------------------|
A|-------------------|
E|-------------------|

(Intro bass)
G|--------------|
D|--------------|
A|--4--4-4-7----| x4
E|--------------|

   (Fill)
E|--9\5---/7\4-------|
B|-------------------|
G|-------------------|
D|-------------------|
A|-------------------|
E|-------------------|
Intro end


Chorus:

A                           Amaj7
In you and I, there's a new land,
A
Angels in flight [I need more affection than you know]
Amaj7
My sanctuary, my sanctuary, yeah
A                           Amaj7
Where fears and lies melt away
A
Music will tie [I need more affection than you know]
Amaj7
What's left of me, what's left of me now


(Break four measures)


(Play during verse)
E|------------------------------------|
B|------------------------------------|
G|--6------9-------------11-----------|
D|--6--x3--9--x5--9------11--x5-------|  x4
A|--4------7------9--x3--9------------|
E|----------------7-------------------|

   (Fill during last time)
E|--9\5---/7\4-------|
B|-------------------|
G|-------------------|
D|-------------------|
A|-------------------|
E|-------------------|

Verse:

I watch you fast asleep,
All I fear means nothing


Chorus:
A                           Amaj7
In you and I, there's a new land,
A
Angels in flight [I need more affection than you know]
Amaj7
My sanctuary, my sanctuary, yeah
A                           Amaj7
Where fears and lies melt away...
A
Music will tie [I need more affection than you know]
Amaj7
What's left of me, what's left of me now

    (Play during verse)
E|-----------------------------------|
B|-----------------------------------|
G|-----------------------------------|
D|-----------6h7--6h7-----------2/4--|  x4
A|--4--4--4------------4--4--4-------|
E|-----------------------------------|

Verse:
[So many ups and downs]
My heart's a battleground
[I need two emotions]
But,
[I need more affection than you know]
[I need two emotions]


(Play during verse)
E|------------------------------------|
B|------------------------------------|
G|--6------9-------------11-----------|
D|--6--x3--9--x5--9------11--x5-------|  x4
A|--4------7------9--x3--9------------|
E|----------------7-------------------|

   (Fill during last line)
E|--9\5---/7\4-------|
B|-------------------|
G|-------------------|
D|-------------------|
A|-------------------|
E|-------------------|


Verse:
You show me how to see that nothing is whole
and nothing is broken


Chorus:
A                           Amaj7
In you and I, there's a new land,
A
Angels in flight [I need more affection than you know]
Amaj7
My sanctuary, my sanctuary, yeah
A                           Amaj7
Where fears and lies melt away...
A
Music will tie [I need more affection than you know]
Amaj7                                N.C.
What's left of me, what's left of me now

   (Fill during last line)
E|--9\5---/7\4-------|
B|-------------------|
G|-------------------|
D|-------------------|
A|-------------------|
E|-------------------|


A
Ooh
Amaj7              A
My fears my lies
A
Melt away

   (Fill during last line)
E|--9\5---/7\4-------|
B|-------------------|
G|-------------------|
D|-------------------|
A|-------------------|
E|-------------------|


A    Amaj7
I... [I need more affection than you know]


(Repat bass until fade)
G|--------------|
D|--------------|
A|--4--4-4-7----| x4
E|--------------|

------------------------------------------------------
Tabbed by:  Shaun Molthop    

Added On December 4th, 2013

SHARE

Comments

blog comments powered by Disqus

VERSIONS

ADVERTISEMENT