HIM Tabs

Kiss Of Dawn

3 versions

TAB

            Band:-H-I-M-
Song: Kiss Of Dawn
Album: Venus Doom
Tab by: bEbE! bebe_4048@hotmail.com

Hey I did my best in this song, sorry if some parts are wrong, specially in the solo and 
artificial harmonics :P ENJOY!

Intro:
E|--------------------|-------------------|--------------------------------------|
B|--------------------|-------------------|--------------------------------------|
G|--------------------|-------------------|--------------------------------------|
D|------7/999-555/777-|------7/999-55-----|------7/999-555/777-7~-7~-------------|
A|------7/999-555/777-|------7/999-55-----|------7/999-555/777-5~-7~-------------|
E|-0000-5/777-333/555-|-0000-5/777-33-[5]-|-0000-5/777-333/555-5~-5~-3-5-3-5-[3]-|
   ....                 ....                ....                     . . . .

E|--------------------|-------------------|--------------------------------------|
B|--------------------|---------------[5]-|--------------------------------------|
G|--------------------|-------------------|--------------------------------------|
D|------7/999-555/777-|------7/999-55-----|------7/999-555/777-7~-7~-------------|
A|------7/999-555/777-|------7/999-55-----|------7/999-555/777-5~-7~-------------|
E|-0000-5/777-333/555-|-0000-5/777-33-----|-0000-5/777-333/555-5~-5~-3-5-3-5-[3]-|
   ....                 ....                ....                     . . . .

Verse:
Guitar 1
E|----|-------------|
B|----|-------------|
G|----|-------------|
D|-0~-|-22-0h2-22-0-|
A|-0~-|-22-0h2-22-0-|x8
E|-0~-|-00-0h0-00-0-|
        ..     ..

Or you can play this:
E|----|-------------|
B|----|-------------|
G|----|-------------|
D|-7~-|----7/9----7-|
A|-5~-|----5/7----7-|x8
E|-5~-|-00-5/7-00-5-|
        ..     ..

Prechorus:
E|--------|-------------|
B|--------|-------------|
G|--------|-------------|
D|-7~-----|-0h2-5-3~-5~-|
A|-7~-xx\-|-0h2-5-3~-3~-|x8
E|-5~-xx\-|-0h0-3-1~-3~-|

Chorus:
Guitar 1
E|--------------------------------------------|-------------|
B|--------------------------------------------|-------------|
G|--------7----9----7----5--------------------|-------------|
D|---5---7-7--9-9--7-7--5-5---5---44-0h4-44-4-|-44-0h4-44-2-|
A|--5-5-5----7----5----3-----5-5--22-0h2-22-2-|-22-0h2-22-2-|x2
E|-3------------------------3-----22-0h2-22-2-|-22-0h2-22-0-|
                                  ..     ..     ..     ..
Guitar 2
E|-------------------------------|-------------|
B|-------------------------------|-------------|
G|----7-----7--5-----------------|-------------|
D|-5--7--2--7--5--5--44-0h4-44-4-|-44-0h4-44-2-|
A|-5--5--2--5--3--5--22-0h2-22-2-|-22-0h2-22-2-|x2
E|-3-----0--------3--22-0h2-22-2-|-22-0h2-22-0-|
                     ..     ..     ..     ..

Then:
E|--------------------|-------------------|--------------------------------------|
B|--------------------|---------------[5]-|--------------------------------------|
G|--------------------|-------------------|--------------------------------------|
D|------7/999-555/777-|------7/999-55-----|------7/999-555/777-7~-7~-------------|
A|------7/999-555/777-|------7/999-55-----|------7/999-555/777-5~-7~-------------|
E|-0000-5/777-333/555-|-0000-5/777-33-----|-0000-5/777-333/555-5~-5~-3-5-3-5-[3]-|
   ....                 ....                ....                     . . . .

Verse 2:
Guitar starts in the middle of the verse
E|----|-------------|
B|----|-------------|
G|----|-------------|
D|-0~-|-22-0h2-22-0-|
A|-0~-|-22-0h2-22-0-|x4
E|-0~-|-00-0h0-00-0-|
        ..     ..

Or:
E|----|-------------|
B|----|-------------|
G|----|-------------|
D|-7~-|----7/9----7-|
A|-5~-|----5/7----7-|x4
E|-5~-|-00-5/7-00-5-|
        ..     ..

Prechorus and Chorus

Bridge:
E|----|-----------------|
B|----|-----------------|
G|----|-----------------|
D|-2~-|-2~-4~-5-4-2-0-4-|
A|-2~-|-2~-4~-5-4-2-0-4-|
E|-0~-|-0~-2~-3-2-0-0-2-|

Solo:
I'm not sure in the solo but I did my best, sorry if its wrong...
E|------------------------------------------------------------------------------------------------|
B|---------------------------7-9b-9-7-9-7---------------------------------------------------------|
G|-9^9^9^9^(11)(11)(11)-/7-9--------------9b-/9-7-----------------9b-9p7-9b-----------------------|
D|------------------------------------------------8-4b----------7-----------5~--6-4---------------|
A|---------------------------------------------------------7-9---------------------[7]-7b7b(8)(8)-|
E|----------------------------------------------------[7]~----------------------------------------|

E|--------------------------------------------------------------------------------------------------------------------------|
B|-16b16b(17)(17)-201916-201916-201916--------------------------------------------------------------------------------------|
G|--------------------------------------15b15b(16)(16)-201915-201915-20-19-17-15-14-12--------------------------------------|
D|-------------------------------------------------------------------------------------15-13-12-15-13-12--------------------|
A|-------------------------------------------------------------------------------------------------------15-13-12b(13)(14)~-|
E|--------------------------------------------------------------------------------------------------------------------------|

Chorus:
Guitar 1
E|--------------------------------------------|-------------|
B|--------------------------------------------|-------------|
G|--------7----9----7----5--------------------|-------------|
D|---5---7-7--9-9--7-7--5-5---5---44-0h4-44-4-|-44-0h4-44-2-|
A|--5-5-5----7----5----3-----5-5--22-0h2-22-2-|-22-0h2-22-2-|x3
E|-3------------------------3-----22-0h2-22-2-|-22-0h2-22-0-|
                                  ..     ..     ..     ..
Guitar 2
E|-------------------------------|-------------|
B|-------------------------------|-------------|
G|----7-----7--5-----------------|-------------|
D|-5--7--2--7--5--5--44-0h4-44-4-|-44-0h4-44-2-|
A|-5--5--2--5--3--5--22-0h2-22-2-|-22-0h2-22-2-|x3
E|-3-----0--------3--22-0h2-22-2-|-22-0h2-22-0-|
                     ..     ..     ..     ..
End:
E|--------------------|-------------------|--------------------------------------|----|
B|--------------------|---------------[5]-|--------------------------------------|----|
G|--------------------|-------------------|--------------------------------------|----|
D|------7/999-555/777-|------7/999-55-----|------7/999-555/777-7~-7~-------------|-2~-|
A|------7/999-555/777-|------7/999-55-----|------7/999-555/777-5~-7~-------------|-2~-|
E|-0000-5/777-333/555-|-0000-5/777-33-----|-0000-5/777-333/555-5~-5~-3-5-3-5-[3]-|-0~-|
   ....                 ....                ....                     . . . .

PEACE!!
HIM RULES!!!!
\m/ LOVE METAL is ALIVE!!!!    

Added On December 16th, 2013

SHARE

Comments

blog comments powered by Disqus

VERSIONS

ADVERTISEMENT