Himsa Tabs

Pestilence

1 versions

TAB

            Pestilence

Guitar 1
---------------------------------------------------------------|
---------------------------------------------------------------|
---------------------------------------------------------------|
--0----------3----------8---7---3---0----------1----------7----|
--0----------3----------8---7---3---0----------1----------7----|
--0----------3----------8---7---3---0----------1----------7----|

Guitar 2 (play 8x)
-------------|
--5--6-------|
-------7-----|
-------------|
-------------|
-------------|

Both Guitars
----------------------------------------------------------------------------|
----------------------------------------------------------------------------|
----------------------------------------------------------------------------|
-12-0-0-0-0-0-0-0-14-0-0-12-0-0-10-0-10-12-0-0-0-0-0-0-0-14-0-0-12-0-0-14-0-|
----------------------------------------------------------------------------|
----------------------------------------------------------------------------|

----------------------------------------------------------------------------|
----------------------------------------------------------------------------|
----------------------------------------------------------------------------|
-14-15-0-0-0-0-0-0-17-0-0-15-0-0-17-0-19-0-0-19-0-0-20-0-19-0-0-15-0-0-14-0-|
----------------------------------------------------------------------------|
----------------------------------------------------------------------------|

4th time end on:
-----------|
-----------|
-----------|
-19--20-17-|
-----------|
-----------|
Dunno the verse riff

But later there’s this part:
(guitar 2 plays parts in parenthesis)
------------------------------------------------------------------|
-----------------------(5--6--3)------------------------(5--6--3)-|
-7-7-7-----7-7-7-----------------101010----101010-----------------|
-x-x-x-----x-x-x-----------------x-x-x-----x-x-x------------------|
-5-5-5-0-0-5-5-5-0-0-0-0-0-0-0-0-8-8-8-0-0-8-8-8-0-0-0-0-8--7--3--|
-------0-0-------0-0-0-0-0-0-0-0-------0-0-------0-0-0-0-8--7--3--|
       ‘ ‘       ‘ ‘ ‘ ‘ ‘ ‘ ‘ ‘       ‘ ‘       ‘ ‘ ‘ ‘
------------------------------------------------------------------|
-----------------------(5--6--3)------------------------(5--6--3)-|
-7-7-7-----7-7-7--------------------------------------------------|
-x-x-x-----x-x-x--------------------------------------------------|
-5-5-5-0-0-5-5-5-0-0-0-0-0-0-0-0-1-1-1-1-1-1-1-1-1-1-1-1----------|
-------0-0-------0-0-0-0-0-0-0-0-1-1-1-1-1-1-1-1-1-1-1-1-8-7------|
       ’ ’       ’ ’ ’ ’ ’ ’ ’ ’       ‘ ‘       ‘ ‘ ‘ ‘

And later..
-------------------------------------------------------------|
----------------------------------------------10-------------|
-----10---9-10----9--10-7~--------10---9-10--------7---9-10--|
-0-0----0------12--------------------------------------------|
------------------------------8-8----8------8----------------|
-------------------------------------------------------------|


----------------------------------------------------------------|
----------------------------------------------------------------|
-----10---9-10----9--10-7~----6-7-6---6-7-9---7-9-10--9--10--12-|
-0-0----0------12-----------------------------------------------|
----------------------------------------------------------------|
----------------------------------------------------------------|

Good luck figuring the rest out
Maybe I’ll update later if I get anything

ewlord-1492@hotmail.com    

Added On December 16th, 2013

SHARE

Comments

blog comments powered by Disqus

ADVERTISEMENT