Hole Tabs

Drown Soda

1 versions

TAB

            Drown Soda Chords by Hole

From: rcjones@sas.upenn.edu (Robert C Jones)
Date: Fri, 15 Dec 1995 18:17:44 -0500 (EST)

Song: Drown Soda
Artist: Hole
Album: MTV Unplugged

I'm gonnas say up front tthat this is probably not really the way it is 
played,  but it sounds pretty damn close to me.  To make it sound right 
you really need a slide.

e-(3)/5--5-5-5-5/7-7--
B-(3)/5--5-5-5-5/7--7-
G-(5)/7--7-7-7-7/9---9
D-(5)/7--7-7-7-7/9----
A-(3)/5--5-5-5-5/7----
E-(3)/5--5-5-5-5/7----     or something along those lines 

when it gets louder play the 779977 more than once
This is just a sort of guideline,  since I assume the real one has an 
open tuning of some sort. You also might want to place more emphasis on 
the D
D
e |---|-x-|---|---|---|
B |---|---|-x-|---|---|
G |---|-x-|---|---|---|
D |---|---|---|---|---|
A |---|---|---|---|---|
E |---|---|---|---|---|
,G
G
e |---|---|-x-|---|---|
B |---|---|---|---|---|
G |---|---|---|---|---|
D |---|---|---|---|---|
A |---|-x-|---|---|---|
E |---|---|-x-|---|---|
,B
B
e |---|-x-|---|---|---|
B |---|---|---|-x-|---|
G |---|---|---|-x-|---|
D |---|---|---|-x-|---|
A |---|-x-|---|---|---|
E |---|-x-|---|---|---|
and e
e
e |---|---|---|---|---|
B |---|---|---|---|---|
G |-x-|---|---|---|---|
D |---|-x-|---|---|---|
A |---|-x-|---|---|---|
E |---|---|---|---|---|
strings. The chorus slides alternatingly down to 557755 and up to 99(11)(11)99 after the 779977. The end uses the following power cords E5
E5
e |---|---|---|---|---|
B |---|---|---|---|---|
G |---|---|---|---|---|
D |---|-x-|---|---|---|
A |---|-x-|---|---|---|
E |---|---|---|---|---|
022xxx F#5
F#5
e |---|---|---|---|---|
B |---|---|---|---|---|
G |---|---|---|---|---|
D |---|---|---|-x-|---|
A |---|---|---|-x-|---|
E |---|-x-|---|---|---|
244xxx G5
G5
e |---|---|---|---|---|
B |---|---|---|---|---|
G |---|---|---|---|---|
D |---|---|---|---|-x-|
A |---|---|---|---|-x-|
E |---|---|-x-|---|---|
355xxx E5 -------F5 E5 E5--------F5 E5 G5 -------F5------- I hope you can follow this. If you don't have a recording of this, I don't think there is much hope. Good Luck.

Added On December 4th, 2013

SHARE

Comments

blog comments powered by Disqus

ADVERTISEMENT