Hollywood Undead Tabs

Glory

1 versions

TAB

            This is my first Hollywood Undead tab, Learned completely by ear. Pretty sure its 100% 
correct. Any corrections just comment and ill change. Thanks.





Intro Guitar 8sec. - 24sec.    2x
e----------------------------------------------------------------------------|
b----------------------------------------------------------------------------|
g-----------5--5-5----10-10-10-----------------------------------------------|
d-0--0-0----3--3-3----10-10-10-----------------------------------------------|
a-0--0-0----3--3-3-----8--8--8-----------------------------------------------|
d-0--0-0----3--3-3-----8--8--8-----------------------------------------------|



(Verse 1) 16x
e---------------------------------------------------------------------------|
b---------------------------------------------------------------------------|
g---------------------------------------------------------------------------|
d---------------------------------------------------------------------------|
a-5--7--8--5----------------------------------------------------------------|
d---------------------------------------------------------------------------|
  Pm Pm Pm Pm



(Chorus) 2x
e----------------------------------------------------------------------------|
b----------------------------------------------------------------------------|
g-----------5--5-5----10-10-10-----------------------------------------------|
d-0--0-0----3--3-3----10-10-10-----------------------------------------------|
a-0--0-0----3--3-3-----8--8--8-----------------------------------------------|
d-0--0-0----3--3-3-----8--8--8-----------------------------------------------|



(Verse 2) 16x
e---------------------------------------------------------------------------|
b---------------------------------------------------------------------------|
g---------------------------------------------------------------------------|
d---------------------------------------------------------------------------|
a-5--7--8--5----------------------------------------------------------------|
d---------------------------------------------------------------------------|
  Pm Pm Pm Pm






(Chorus) 2x
e----------------------------------------------------------------------------|
b----------------------------------------------------------------------------|
g-----------5--5-5----10-10-10-----------------------------------------------|
d-0--0-0----3--3-3----10-10-10-----------------------------------------------|
a-0--0-0----3--3-3-----8--8--8-----------------------------------------------|
d-0--0-0----3--3-3-----8--8--8-----------------------------------------------|




(Bridge)
Still working, post it as soon as i can.





(Chorus) 4x
e----------------------------------------------------------------------------|
b----------------------------------------------------------------------------|
g-----------5--5-5----10-10-10-----------------------------------------------|
d-0--0-0----3--3-3----10-10-10-----------------------------------------------|
a-0--0-0----3--3-3-----8--8--8-----------------------------------------------|
d-0--0-0----3--3-3-----8--8--8-----------------------------------------------|    

Added On December 16th, 2013

SHARE

Comments

blog comments powered by Disqus

ADVERTISEMENT