Hoobastank Tabs

First Of Me

5 versions

TAB

            First Of Me Tab by Hoobastank


Dropped E Tuning  F# C# A E B E (up 1 Step)


Intro/Verse (Palm Mute All)
||----------------------------------------------------------------|
||----------------------------------------------------------------|
||-0-0-0-0-0-0-0-0-0-0-0-0-0-0-0-0-0-0-0-0-0-0-0-0----------------|
||-2-2-2-2-2-2-2-0-2-2-2-2-2-2-2-2-2-2-2-2-2-2-2-0-1-1-1-1-1-1-1--|
||-3-3-3-3-3-3-3-0-2-2-2-2-2-2-2-2-2-2-2-2-2-2-2-0-1-1-1-1-1-1-1--|
||-----------------2-2-2-2-2-2-2-2-2-2-2-2-2-2-2---1-1-1-1-1-1-1--|
(Alternate Way of Playing) Palm Mute
||----------------------------------------------------------------|
||----------------------------------------------------------------|
||----------------------------------------------------------------|
||-2-2-2-2-2-2-2-0-2-2-2-2-2-2-2-2-2-2-2-2-2-2-2-0-1-1-1-1-1-1-1--|
||-3-3-3-3-3-3-3-0-2-2-2-2-2-2-2-2-2-2-2-2-2-2-2-0-2-2-2-2-2-2-2--|
||----------------------------------------------------------------|

Bridge (Palm Mute until last two strums of each chord)
||-----------------------------------------------------------------|
||-----------------------------------------------3-3-3-3-3-3-3-3---|
||-2-2-2-2-2-2-2-2-2-2-2-2-2-2-2-0-0-0-0-0-0-0-0-2-2-2-2-2-2-2-2---|
||-2-2-2-2-2-2-2-2-2-2-2-2-2-2-2-2-2-2-2-2-2-2-2-0-0-0-0-0-0-0-0---|
||-0-0-0-0-0-0-0-0-0-0-0-0-0-0-0-3-3-3-3-3-3-3-3-------------------|
||-----------------------------------------------------------------|
(Palm Mute until open chord)
||------------------------------------------------------------------|
||------------------------------------------------------------------|
||------------------------------------------------------------------|
||-2-2-2-2-2-2-2-2-2-2-2-2-2-2-2-0-0-0------------------------------|
||-2-2-2-2-2-2-2-2-2-2-2-2-2-2-2-0-0-0------------------------------|
||-2-2-2-2-2-2-2-2-2-2-2-2-2-2-2-0-0-0------------------------------|

Chorus (Strum with the song, Timing not right)
||--------------------------------------------------------------------------|
||--------------------------------------------------------------------------|
||--------------------------------------------------------------------------|
||-2--2--2-2--2--2---2-2-/-5--5---5-5-5---5-5--0--0-0-0--0-0-1-1--1-1-2-2-2-|
||-2--2--2-2--2--2---2-2-/-5--5---5-5-5---5-5--0--0-0-0--0-0-2-2--2-2-3-3-3-|
||-2--2--2-2--2--2---2-2-/-5--5---5-5-5---5-5--0--0-0-0--0-0----------------|

Outro (Let Each Note Ring)
||-----2-------2--------3----2-----------|
||-----------------------------------3---|
||-------2--------2-------2-----2--------|
||---------------------------------------|
||---------------------------------------|
||-2-2------2-------2-2------------2-----|

||-------------------------------------------|
||-----7-------7--------8----7---------------|
||---------------------------------------7---|
||-------7-------7--------7------7-----------|
||-------------------------------------------|
||-5-5------5-------5-5------------5---------|

||-----2-------2--------3----2-------0---|
||---------------------------------------|
||-------2--------2-------2-----2--------|
||---------------------------------------|
||---------------------------------------|
||-0-0------0-------0-0------------0-----|

||-----------------------0------2-------2---|
||-----4------4-----------------------------|
||-------2--------2--------2-------2--------|
||------------------------------------------|
||-2-2------2-------2-3-------3-------3-----|
||------------------------------------------|

I do not have my guitar to confirm it sounds that way So I welcome corrections. Most of 
tab has to credited to the other tabbers as they had set most of this out already, I 
saw a video with the Tuning to play the song.    

Added On December 4th, 2013

SHARE

Comments

blog comments powered by Disqus

VERSIONS

ADVERTISEMENT