Hope Tabs

Bring Me Flowers

2 versions

TAB

            Bring Me Flowers Tab by Hope


Capo 1

Verse 1
e--2----------0-0----------------------------------------------------------|
b--3----3-2---3-3---2-3----------------------------------------------------|
g--4----2-2---2-2---2-2----------------------------------------------------|
d-------2-2---------2-2----------------------------------------------------|
a--------------------------------------------------------------------------|
e--------------------------------------------------------------------------|
(sometimes random strums so improvise with full chords)

Chorus
e--2--0--3------------0-0--------------------------------------------------|
b--3--3--3------3-2---3-3---2-3--------------------------------------------|
g--0--0--0------2-2---2-2---2-2--------------------------------------------|
d---------------2-2---------2-2--------------------------------------------|
a--------------------------------------------------------------------------|
e--------------------------------------------------------------------------|
(improv with EVERYTHING :)

caught up in your smile, i'm happy as a child...(bak to normal verse)
2   0
3   3
0   2
0   2
x   x
x   x    

Added On December 4th, 2013

SHARE

Comments

blog comments powered by Disqus

VERSIONS

ADVERTISEMENT