Hot Chelle Rae Tabs

Bleed9

1 versions

TAB

            Tuning: drop D
Chords: Bm, G, D
The G chord is different from normal.  Here is the diagram.

E|---3---|
B|---0---|
G|---0---|
D|---0---|
A|---0---|
D|---5---|

Intro: Bm   G   D

Verse:
Bm                G               D
  I feel like I'm drowning in ice water
Bm             G                 D  
  My lips have turned a shade of blue
Bm           G  
  I'm frozen with this fear
D  
  That you may disappear
Bm            G             D  
  Before I've given you the truth

Chorus:
Bm           G                 D  
  I bleed my heart out on this paper for you
Bm           G                D  
  So you can see what I can't say
Bm                G  
  I'm dying here (I'm dying here)
C  
  'Cause I can't say what I want to
Bm           G                  D    
  I bleed my heart out just for you

Bm           G           D                 Bm         G               D

e|-----------|-----------|-----------------|----------|---------------|
B|-----------|-----------|----10---8--7----|----------|--8--7---------|
G|----99-77--|---99--77--|--7----7------9--|----9--7--|-------9--7-6b-|
D|-77--------|-77--------|-----------------|--7-------|---------------|
A|-----------|-----------|-----------------|----------|---------------|
D|-----------|-----------|-----------------|----------|---------------|

Verse:
Bm            G                  D
  I've always dreamed about this moment
Bm             G                       D  
  And now it's here and I've turned to stone
Bm             G  
  I stand here petrified
D  
  As I look you in your eyes
Bm           G        D  
  My head is ready to explode

Chorus:  
Bm           G                 D  
  I bleed my heart out on this paper for you
Bm           G                D  
  So you can see what I can't say
Bm                G  
  I'm dying here (I'm dying here)
C  
  'Cause I can't say what I want to
Bm           G                  D    
  I bleed my heart out just for you


[Here is the pattern for the bridge.  It is easy to here when to switch in the music video]

Bridge tab:
e|-------------------------------------------------------------------------|
B|-------------------------------------------------------------------------|
G|-------------------------------------------------------------------------|
D|----------------------------------------------let last 7th fret ring-----|
A|-2-(x16)--5(x16)--9(x16)--12(x16)--2(x16)--5(X16)--9(x16)--7(x9)---------|
D|-2-(x16)--5(x16)--9(x16)--12(x16)--2(x16)--5(X16)--9(X16)--7(x9)---------|

Bridge lyrics:
  And it's all here in

  Black and white and red
  
  For all the times
  
  Those words were never said 

Chorus:
Bm           G                 D  
  I bleed my heart out on this paper for you
Bm           G                D  
  So you can see what I can't say
Bm                G  
  I'm dying here (I'm dying here)
C  
  'Cause I can't say what I want to
Bm           G                  D    
  I bleed my heart out just for you
Bm           G                  D
  I bleed my heart out just for you.

Outro:

Bm           G           D                 Bm         G               D

e|-----------|-----------|-----------------|----------|---------------|
B|-----------|-----------|----10---8--7----|----------|--8--7---------|
G|----99-77--|---99--77--|--7----7------9--|----9--7--|-------9--7-6b-|
D|-77--------|-77--------|-----------------|--7-------|---------------|
A|-----------|-----------|-----------------|----------|---------------|
D|-----------|-----------|-----------------|----------|---------------|

Enjoy.  The strumming patterns and such are all on the music video.  
The only thing that is not acoustic on this tab is the bridge but 
it sounds the same on both acoustic and electric.    

Added On December 16th, 2013

SHARE

Comments

blog comments powered by Disqus

ADVERTISEMENT