Houston Calls Tabs

Bob And Bonnie

2 versions

TAB

            Bob And Bonnie Tab by Houston Calls


intro      Verse 1
e--------\-----------------------------------------------------------------|
b--------\-------------101010-888-77-888---101010-888-77-555-777-5---------|
g--7-----\-7777-------------------------777--------------------------------|
d--7-5-5-\-7777--5555------------------------------------------------------|
a--5-5-5-\-5555--5555------------------------------------------------------|
e----3-3-\-------3333------------------------------------------------------|

e--------------------------------------------------------------------------|
b-----------------------------151515-----------151515----------------------|
g-777-999-1111-121212-11111111------121212-1111------121212-1111-7777777---|
d----------------------------------------------------------------777777777-|
a----------------------------------------------------------------555555577-|
e-----------------------------------------------------------------------55-|

Pre-Chorus                       Chorus
e-----------------------------\---------------------------------------------|
b-----------------------------\---------------------------------------------|
g----------7777---------------\---------------------------------------------|
d-9999-555577777777-9999-5555-\---------------------------------------------|
a-9999-555555557777-9999-5555-\-6666---333-111-6666---333-111---------------|
e-7777-3333----5555-7777-3333-\-----444------------444----------------------|

Post Chorus         2nd Chorus                     3rd Chorus
e---------------\-------------------------------\---------------------------|
b------2x-------\-------------------------------\---------------------------|
g---------------\-------------------------------\-8888---555-333------------|
d-5555-7777-----\-------------------------------\-8888666555-333------2x----|
a-5555-7777-----\-6666---333-111-6666---333-111-\-6666666333-111------------|
e-3333-5555-----\-----444------------444--------\-----444-------------------|

Bridge                           2nd Post Chorus
e----------------------------\----------------------------------------------|
b----------------------------\----------------------------------------------|
g-7777-----------------------\----------------------------------------------|
d-7777-5555-9999-5555--------\--5555555-7777777-----------------------------|
a-5555-5555-9999-5555--------\--5555555-7777777-----------------------------|
e------3333-7777-3333--------\--3333333-5555555-----------------------------|

Outro
e---------------------------|
b---------------------------|
g---7-----------7-----------|
d---7-----5-----7-----------|
a---5-----5-----5-----------|
e---------3-----------------|


intro
verse 1
pre chorus
chorus 2x
post chorus 2x
verse 1
pre chorus
chorus
2nd chorus
3rd chorus 2x
bridge 3x
2nd post chorus 1x
3rd chorus 2x
outro    

Added On December 4th, 2013

SHARE

Comments

blog comments powered by Disqus

VERSIONS

ADVERTISEMENT