Howard Shore Tabs

Shire

1 versions

TAB

            hey , im working on this tab for 1 day or someting :P.
i'm adding more later , just want to put it on ultimate-guitar.


E-----0--2--5--2--------2--5--7-10--9--5--2--3p2-0--|
B--3--------------5--3------------------------------|
G---------------------------------------------------|
D---------------------------------------------------|
A---------------------------------------------------|
E---------------------------------------------------|

E-----0--2--5--2-----------------2--5--7--7--5--2--0-|
B--3--------------5--7--5--3-------------------------|
G----------------------------------------------------|
D----------------------------------------------------|
A----------------------------------------------------|
E----------------------------------------------------|

E--------------------------------------------------------|
B----------------8--10--11--10--8--6--8--10--8--6--5--3--|
G--4--2--2-2--4------------------------------------------|
D--------------------------------------------------------|
A--------------------------------------------------------|
E--------------------------------------------------------|


here you go :)    

Added On December 16th, 2013

SHARE

Comments

blog comments powered by Disqus

ADVERTISEMENT