I Am The Avalanche Tabs

Gratitude

1 versions

TAB

            e|-----1---------------------1-----------------------1-----------------------|
B|---------------------------------------------------------------------------|
G|-1-2---2---------------1-2---2--3333333-2------1-2---2---------------------|
D|----------333333333333----------3333333-2-5555---------333333333333--------|
A|----------333333333333----------1111111-0-5555---------333333333333--------|
E|----------111111111111--------------------3333---------111111111111--------|

e|-----1---------------------------------------------------------------------|
B|---------------------------------------------------------------------------|
G|-1-2---2--33333333-55555555------------------------------------------------|
D|----------33333333-55555555-3----------------------------------------------|
A|----------11111111-33333333-3----------------------------------------------|
E|----------------------------1----------------------------------------------|    

Added On December 16th, 2013

SHARE

Comments

blog comments powered by Disqus

ADVERTISEMENT