I Am X Tabs

Missile

1 versions

TAB

            Missile Tab by I Am X


-------------------------------------------------------------------------------
			     Missile - I Am X
-------------------------------------------------------------------------------
Tabbed by: mayonaize
Tuning: E A D G B E

Sneaker Pimp's front man Chris Corner's side project 'I Am X'.
See official site (www.iamx.co.uk) or fan site (www.sneakerpimps.be) for details.


I AM X
Missile


Riff #1
   G                       B
e--10-10-10-10-10-10-10-10-11-11-11-11-11-11-11-11-|
b--------------------------------------------------|
g--------------------------------------------------|
d--------------------------------------------------|
a--------------------------------------------------|
E--------------------------------------------------|

   Em                      C
e--12-12-12-12-12-12-12-12-------------------------|
b--------------------------13-13-13-13-13-13-13-13-|
g--------------------------------------------------|
d--------------------------------------------------|
a--------------------------------------------------|
E--------------------------------------------------|

Riff#2
   G                       B7
e-----19--19--19--15-15----------------------------|
b-----------------------15-15-15-13--12---13-------|
g--0-----------------------------------------------|
d--------------------------------------------------|
a--------------------------------------------------|
E--------------------------------------------------|

   C                       Cm
e--15------------------22--------------------------|
b--------------------------16--15--16--15----------|
g------------------------------------------12------|
d--------------------------------------------------|
a--------------------------------------------------|
E--------------------------------------------------|

G                   B        Em                          C
 So you came like a missile, falling on my head with the black sky
G                               B7              C               Cm
 Think you're giving but you're taking my life away
G                        B              Em                         C    

Added On December 4th, 2013

SHARE

Comments

blog comments powered by Disqus

ADVERTISEMENT