I Hate Sally Tabs

Hannah Hannah

1 versions

TAB

            -----------------------------------------------------------------------|
-----------------------------------------------------------------------|
-----------------------------------------------------------------------|
-----------------------------------------------------------------------|
-----------------------------------------------------------------------|
-2p0-0-0-0-0-0-0 2222--------------------------------------------------|

--------------------------------------------------------------------|
--------------------------------------------------------------------|
--------------------------------------------------------------------|
--------------------------------------------------------------------|
--------------------------------------------------------------------|
-3p0-3p0-3p0-8p0-8p0-8p0--------------------------------------------|

-----------------------------------------------------------------------|
-----------------------------------------------------------------------|
-----------------------------------------------------------------------|
-----------------------------------------------------------------------|
-----------------------------------------------------------------------|
-2p0-0-0-0-0-0-0 2222--------------------------------------------------|


--------------------------------------------------------------------|
--------------------------------------------------------------------|
--------------------------------------------------------------------|
--------------------------------------------------------------------|
--------------------------------------------------------------------|
-3p0-3p0-3p0-8p0-8p0-8p0--------------------------------------------|


------------------------------------------|
------------------------------------------|
--1010101010101010-44444444---------------|
------------------------------------------|
--8-8-8-8-8-8-8-8--22222222---------------|
------------------------------------------|


------------------------------------------|
------------------------------------------|
------------------------------------------|
3333-0000-5555----------------------------|
3333-0000-5555----------------------------|
3333-0000-5555-3p0-2p0-3/4-3p0-2p0-3/4----|

-----------------------------------------------------------------------|
-----------------------------------------------------------------------|
-----------------------------------------------------------------------|
-----------------------------------------------------------------------|
-----------------------------------------------------------------------|
-2p0-0-0-0-0-0-0 2222--------------------------------------------------|

--------------------------------------------------------------------|
--------------------------------------------------------------------|
--------------------------------------------------------------------|
--------------------------------------------------------------------|
--------------------------------------------------------------------|
-3p0-3p0-3p0-8p0-8p0-8p0--------------------------------------------|


------------------------------------------|
------------------------------------------|
--1010101010101010-44444444---------------|
------------------------------------------|
--8-8-8-8-8-8-8-8--22222222---------------|
------------------------------------------|

---------------------------------------------------------------|
---------------------------------------------------------------|
---------------------------------------------------------------|
3333-0000-5555-------------------------------------------------|
3333-0000-5555-------------------------------------------------|
3333-0000-5555-3p0-2p0-3/4-3p0-2p0-3/4-3p0-2p0-3/4-3p0-2p0-3/4-|

------------------------------------------|
------------------------------------------|
------------------------------------------|
------------------------------------------|2 times
------------------------------------------|
00-000-00-000-33-33-88-55-----------------|
"sorry not right now"
-----------------------------------------------------------------|
-----------------------------------------------------------------|
-----------------------------------------------------------------|
00-00-0-00-0-33-33-88-1313-00-000000-33-33-88-1313---------------|
00-00-0-00-0-33-33-88-1313-00-000000-33-33-88-1313---------------|
00-00-0-00-0-33-33-88-1313-00-000000-33-33-88-1313---------------|


|---------------------------------------------------------------------------|
|---------------------------------------------------------------------------|
|---------------------------------------------------------------------------|
|---------------------------------------------------------------------------|
|5p0-5-5/6/5-5p0-5-5/6/5--7p0-7-7/8/7-7p0-7-7/8/7--2p0-2-2/3/2-2p0-2-2/3/2--|
|---------------------------------------------------------------------------|

-------------|
-------------|
-------------|
-------------|2 times
-2-33-1------|
-------------|

-----------------------------------------------------------------------|
-----------------------------------------------------------------------|
-----------------------------------------------------------------------|
-----------------------------------------------------------------------|
-----------------------------------------------------------------------|
-2p0-0-0-0-0-0-0 2222--------------------------------------------------|

--------------------------------------------------------------------|
--------------------------------------------------------------------|
--------------------------------------------------------------------|
-----------------------6-5-------------------------6-5-2-3----------|
-----------------------6-5-------------------------6-5-2-3----------|
1-0-0-1b-0-1b-0-1b-0-0-6-5--1-0-0-1b-0-1b-0-1b-0-0-6-5-2-3-1b0-0----|    

Added On December 16th, 2013

SHARE

Comments

blog comments powered by Disqus

ADVERTISEMENT