Ill Nino Tabs

Alibi Of Tyrants

1 versions

TAB

            Ill Nino: Alibi Of Tyrants

Transcribed by: Andrew Zara (disturbedfreak0520@yahoo.com)

Date last modified: May 31, 2007

PLEASE DO NOT COPY THIS TAB TO ANOTHER SITE
WITHOUT AUTHORS' PERMISSION.THANK YOU.

Tuning: Drop C (C,G,C,F,A,D)

Riff 1
D|--------------------------------------------------------|
A|--------------------------------------------------------|
F|--------------------------------------------------------|
C|-0----3----5----8-8-8-8-8-8--0----3----5----8-8-8-8-8-8-|
G|-0----3----5----8-8-8-8-8-8--0----3----5----8-8-8-8-8-8-|
C|-0----3----5----8-8-8-8-8-8--0----3----5----8-8-8-8-8-8-|
                  * *   * *                   * *   * *

Riff 2
Guitar 1
D|----------------------------------------------------------|
A|----------------------------------------------------------|
F|-------8-8-----------8-8\-----------8-8-------------7\5/7-|
C|-------7-7-----------7-7\-----------7-7-------------5\3/5-|
G|-0-0-0-----0-0-0-0-0------0-0-0-0-0-----0-0-0-0-0-0-5\3/5-|
C|-0-0-0-----0-0-0-0-0------0-0-0-0-0-----0-0-0-0-0-0-------|
   * * *     * * * * *      * * * * *     * * * * * *

Riff 2
Guitar 2
D|----------------------------------------------------------|
A|----------------------------------------------------------|
F|-------8-8-----------8-8\-----------8-8-------------7\5/7-|
C|-------x-x-----------x-x------------x-x-------------x-x-x-|
G|-0-0-0-6-6-0-0-0-0-0-6-6\-0-0-0-0-0-6-6-0-0-0-0-0-0-5\3/5-|
C|-0-0-0-----0-0-0-0-0------0-0-0-0-0-----0-0-0-0-0-0-------|
   * * *     * * * * *      * * * * *     * * * * * *

Riff 3
D|-------------------------------------------------------|
A|-------------------------------------------------------|
F|-------------------------------------------------------|
C|-0-0-0-0-0-0-0-3-3-3-3-3-3-3-5-5-5-5-5-5-5-8-8-8-8-8-8-|
G|-0-0-0-0-0-0-0-3-3-3-3-3-3-3-5-5-5-5-5-5-5-8-8-8-8-8-8-|
C|-0-0-0-0-0-0-0-3-3-3-3-3-3-3-5-5-5-5-5-5-5-8-8-8-8-8-8-|
     * * * * * *   * * * * * *   * * * * * * * *   * *

Play Riff 1   "...again..."
Play Riff 2
Play Riff 3

Riff 4
D|------------------------|
A|------------------------|
F|------------------------|
C|-0--------8--0--------8-|
G|-0--------8--0--------8-|
C|-0--------8--0--------8-|

Riff 5
D|-----------------------------------------|
A|-----------------------------------------|
F|-----------------------------------------|
C|-10-12p10h12p10h12p10h12-------------0-3-|
G|-------------------------5h6p5h6p5h6-0-3-|
C|-------------------------------------0-3-|

D|-------------------------------|
A|-------------------------------|
F|-------------------------------|
C|-8-7h8p7h8p7h8-------------3-5-|
G|---------------5h6p5h6p5h6-3-5-|
C|---------------------------3-5-|

D|---------------------------|
A|---------------------------|
F|---------------------------|
C|-0-------------------------|
G|-0-------------------------|
C|-0-------------------------|

Play Riff 3
Play Riff 2


Notation:

10^        = bend a quarter step.
10b11      = bend a half step.
10b12      = bend a full step.
10b12r10   = bend and release.
[10]12     = pre-bend.
[10]12r10  = pre-bend and release.
{14}       = pick the 14th fret while holding the most 
             previous bend.
       = touch the string above the 17th fret while 
             previous note(s) is(are) still ringing.

10b13*     = tremolo bar bend, from the 10th fret to the 13th fret.
7d4*       = tremolo bar dive, from the 7th fret to the 4th fret. 
12~*       = tremolo bar vibrato.

x   =  mute with fret-hand
*   =  palm mute
X\\ =  pick slide
h   =  hammer-on
p   =  pull-off
~   =  vibrato
t   =  finger tap
/   =  slide up
\   =  slide down
h.  =  natural harmonics
a   =  artificial harmonics
(9) =  ghost note
tm  =  trem picking
tr  =  trill    

Added On December 16th, 2013

SHARE

Comments

blog comments powered by Disqus

ADVERTISEMENT