Ill Nino Tabs

Rip Out Your Eyes

2 versions

TAB

            Rip Out Your Eyes Tab by Ill Nino


Artist: Ill Niño
Title: Rip out your eyes
Album: Revolution / Revolución
Transcribed by: Craig Makepeace
E-mail: staind_the_cycle@hotmail.com

C Tuning

x = mute
. = palm mute

Intro (lightly palm muted)
------------------------------------
------------------------------------
------------------------------------
------------------------------------
------------------------------------
--13-12-0-12-13-0--13-12-0-12-13-0--

---------------
---------------
---------------
--0-0-0-0-0-0--
--0-0-0-0-0-0--
--0-0-0-0-0-0--
  . . . . . .

Verse
-----------------------------------------------------------------
-----------------------------------------------------------------
-10-10-10-10-10-10-10-10-10-10-10-10-10-10-10-10-10-10-10-10-10--
--x--x--x--x--x--x--x--x--x--x--x--x--x--x--x--x--x--x--x--x--x--
--8--8--8--8--8--8--8--8--8--8--8--8--8--8--8--8--8--8--8--8--8--
-----------------------------------------------------------------

Chorus
-------------------------------
-------------------------------
----------------------------7--
--0-0-1--0-0-1--0-0-1--0-0--6--
--0-0-1--0-0-1--0-0-1--0-0--5--
--0-0-1--0-0-1--0-0-1--0-0-----

-------------------------------
-------------------------------
----------------------------6--
--0-0-1--0-0-1--0-0-1--0-0--5--
--0-0-1--0-0-1--0-0-1--0-0--4--
--0-0-1--0-0-1--0-0-1--0-0-----

Build up to end....
-----|-----|------|------|------|------|------|------
-----|-----|------|------|------|------|------|------
--7--|--9--|--10--|--12--|--14--|--15--|--17--|--19--
--x--|--x--|---x--|---x--|---x--|---x--|---x--|---x--
--5--|--7--|---8--|--10--|--12--|--13--|--15--|--17--
-----|-----|------|------|------|------|------|------
*Play each octave 6 times except for the last one thats played 4 times


© 2001-2002 Craig Makepeace (staind_the_cycle@hotmail.com)    

Added On December 4th, 2013

SHARE

Comments

blog comments powered by Disqus

VERSIONS

ADVERTISEMENT