Ill Nino Tabs

Turns To Gray

3 versions

TAB

            Turns To Gray Tab by Ill Nino


..= Par Mute

/=slide to next note

Intro

D----------------------------------------------------------|
A----------------------------------------------------------|
F-------8-7-----8-7---7/8-----8-7-----8-10---8/7-----------|
C-------8-7-----8-7---7/8-----8-7-----8-10---8/7       X 4-|
G-------6-5-----6-5---5/6-----6-5-----6-8----6/5-----------|
C---0-0----0-0-0-----0-----0-0----0-0-0----0---------------|
    . .    . . .     .     . .    . . .    .

Verse

D----------------------------------------------|
A----------------------------------------------|
F----------------------------------------------|     X 2
C----------------------------------------------|
G----------------------------------------------|
C---0-0-0-0-0----------------------------------|
    . . . . .

D----------------------------------------------|
A----------------------------------------------|
F----------------------------------------------|
C----------------------------------------------|
G----------------------------------------------|
C---7-7-7-7-7-7-7-7--10-10-10-10-10--1-1-1-1-1-|

D----------------------------------------------|
A----------------------------------------------|
F---8-8----7-7---5-5---3-3---------------------|
C---8-8----7-7---5-5---3-3---------------------|
G---6-6----5-5---3-3---1-1---------------------|
C----------------------------------------------|

Chorus- ( I dont know what guitar 2 is playing here)

D----------------------------------------------|
A----------------------------------------------|
F----------------------------------------------|
C--5-5-5-5-5-5-5-5-5--1-1-1-1-1-1-1-1-1--------|
G--5-5-5-5-5-5-5-5-5--1-1-1-1-1-1-1-1-1--------|
C--5-5-5-5-5-5-5-5-5--1-1-1-1-1-1-1-1-1--------|


D------------------------------------------------|
A------------------------------------------------|
F-------8-7-----8-7---7/8-----8-7-----8-10---8/7-|
C-------8-7-----8-7---7/8-----8-7-----8-10---8/7-|
G-------6-5-----6-5---5/6-----6-5-----6-8----6/5-|
C---0-0----0-0-0-----0-----0-0----0-0-0----0-----|
    . .    . . .     .     . .    . . .    .

D----------------------------------------------|
A----------------------------------------------|
F----------------------------------------------|
C--5-5-5-5-5-5-5-5-5--1-1-1-1-1-1-1-1-1--------|
G--5-5-5-5-5-5-5-5-5--1-1-1-1-1-1-1-1-1--------|
C--5-5-5-5-5-5-5-5-5--1-1-1-1-1-1-1-1-1--------|


D---------------------------------------------------------|
A---------------------------------------------------------|
F-------8-7-----8-7---7/8-----8-7-----8-10---8/7----------|
C-------8-7-----8-7---7/8-----8-7-----8-10---8/7      X 2-|
G-------6-5-----6-5---5/6-----6-5-----6-8----6/5----------|
C---0-0----0-0-0-----0-----0-0----0-0-0----0--------------|
    . .    . . .     .     . .    . . .    .

Outro

D----------------------------------------------|
A----------------------------------------------|
F----------------------------------------------|
C----------------------------------------------|     X 10
G----------------------------------------------|
C--0~--0-0-0-1-0-3-1-0-0-0-1-0-0-1-0-0---------|
       . . .         . . .   . .   . .


( End On this )

D-----------------------------------------------|
A-----------------------------------------------|
F-----------------------------------------------|
C-----------------------------------------------|
G-----------------------------------------------|
C---0~------------------------------------------|


This is my first ever tab so please rate it
cheers!, Mike    

Added On December 4th, 2013

SHARE

Comments

blog comments powered by Disqus

VERSIONS

ADVERTISEMENT