Impending Doom Tabs

Death Ascension Resurrection

1 versions

TAB

            these are super basic tabs

                               INTRO
--17--17-----17--17--18---17---17------16--16-13-----------------------|
15--15--15-15--15--------15--15---15-14--14----------------------------|
-----------------------------------------------------------------------|
-----------------------------------------------------------------------|
-----------------------------------------------------------------------|
-----------------------------------------------------------------------|

-----------------------------------------------------------------------|
-----------------------------------------------------------------------|
-----------------------------------------------------------------------|
-----------------------------------------------------------------------|
-3-0-8-0-8-0-7-2-3-0---------------------------------------------------|
-----------------------------------------------------------------------|

-----------------------------------------------------------------------|
-----------------------------------------------------------------------|
-----------------------------------------------------------------------|
-----------------------------------------------------------------------|
---8---7---------------------------------------------------------------|
--0---3----------------------------------------------------------------|

-----------------------------------------------------------------------|
-----------------------------------------------------------------------|
-----------------------------------------------------------------------|
-----------------------------------------------------------------------|
-3-0-8-0-8-0-7-2-3-0---------------------------------------------------|
-----------------------------------------------------------------------|

-----------------------------------------------------------------------|
-----------------------------------------------------------------------|
-----------------------------------------------------------------------|
-----------------------------------------------------------------------|
--8---7---8---7---12---10----------------------------------------------|
-0---3---0---3---7----5------------------------------------------------|

-----------------------------------------------------------------------|
-----------------------------------------------------------------------|
-----------------------------------------------------------------------|
-----------------------------------------------------------------------|
-3-0-8-0-8-0-7-2-3-0---------------------------------------------------|
-----------------------------------------------------------------------|

-----------------------------------------------------------------------|
-----------------------------------------------------------------------|
-----------------------------------------------------------------------|
-----------------------------------------------------------------------|
---8---7---------------------------------------------------------------|
--0---3----------------------------------------------------------------|

-----------------------------------------------------------------------|
-----------------------------------------------------------------------|
-----------------------------------------------------------------------|
-----------------------------------------------------------------------|
-3-0-8-0-8-0-7-2-3-0---------------------------------------------------|
-----------------------------------------------------------------------|

-----------------------------------------------------------------------|
-----------------------------------------------------------------------|
-----------------------------------------------------------------------|
-----------------------------------------------------------------------|
--8---7---8---7---12---10----------------------------------------------|
-0---3---0---3---7----5------------------------------------------------|

-----------------------------------------------------------------------|
-----------------------------------------------------------------------|
-----------------------------------------------------------------------|
-----------------------------------------------------------------------|
0----------------------------------------------------------------------|
0----------------------------------------------------------------------|

                          breakdown
-----------------------------------------------------------------------|
-----------------------------------------------------------------------|
-----------------------------------------------------------------------|
-----------------------------------------------------------------------|
-0---------------------------------------------------------------------|
-1---------------------------------------------------------------------|

-----------------------------------------------------------------------|
-----------------------------------------------------------------------|
-------8---------------------------------------------------------------|
-2-5-9---9-------------------------------------------------------------|
-----------5-2---------------------------------------------------------|
-----------------------------------------------------------------------|

                         breakdown
-----------------------------------------------------------------------|
-----------------------------------------------------------------------|
-----------------------------------------------------------------------|
-----------------------------------------------------------------------|
-0---------------------------------------------------------------------|
-1---------------------------------------------------------------------|    

Added On December 16th, 2013

SHARE

Comments

blog comments powered by Disqus

ADVERTISEMENT