In Flames Tabs

Trigger

3 versions

TAB

            Hello everybody!
 
                              This is a great song!

Intro   00.00-00.21
 Guitar 1
e|-------------------------------------------------------------------------|
B|-------------------------------------------------------------------------|
G|-------------------------------------------------------------------------|
D|------------------5-5-5-2--2-2-2-----------------7-7-7-4--4-4-4----------|
A|------------------3-3-3-0--0-0-0-----------------5-5-5-2--2-2-2----------|
E|--000-0-000-0-000----------------000-0-000-0-000-------------------------|
    ... . ... . ...                ... . ... . ...
e|-------------------------------------------------------------------------|
B|-------------------------------------------------------------------------|
G|-------------------------------------------------------------------------|
D|------------------5-5-5-2--2-2-2-----------------4-4-4-4--4-4-4----------|
A|------------------3-3-3-0--0-0-0-777-7-555-5-555-5-5-5-6--6-6-6----------|
E|--000-0-333-3-333--------------------------------------------------------|
    ... . ... . ...                ... . ... . ...
 Guitar 2
e|-------------------------------------------------------------------------|
B|--7h8p7--------/12-10-8h10p7--7h8p7----/10-8-7---------------------------|
G|--------9---------------------------9----------9-7~----------------------|
D|----------9-10------------------------9----------------------------------|
A|-------------------------------------------------------------------------|
E|-------------------------------------------------------------------------|

e|-------------------------------------------------------------------------|
B|--7h8p7--------/12-10-8h10p7--7h8p7----/10-8-7---------------------------|
G|--------9---------------------------9----------9-7~----------------------|
D|----------9-10------------------------9----------------------------------|
A|-------------------------------------------------------------------------|
E|-------------------------------------------------------------------------|
                                                         all this 2 times

Riff    00.26-00.46
 Guitar 1
e|-------------------------------------------------------------------------|
B|-------------------------------------------------------------------------|
G|-----------------------------------------------4------------7------------|
D|-----------------------------------4-5---------2------------5------------|
A|-------------------------7-5---5-7-------------2------------3------7-5---|
E|--000-000------000-000-------7---------000-000------000-000------------7-|
    ... ...      ... ...                 ... ...      ... ...
e|-------------------------------------------------------------------------|
B|-------------------------------------------------------------------------|
G|-----------------------------------------------4------------7------------|
D|-----------------------------------4-5---------2------------5------------|
A|-------------------------7-5---5-7-------------2------------3------7-5---|
E|--000-000------000-000-------7---------000-000------000-000------------7-|
    ... ...      ... ...                 ... ...      ... ...

 Guitar 2
e|-------------------------------------------------------------------------|
B|-------------------------------------------------------------------------|
G|-------------------------------------4---------4------------7------------|
D|-------------------------5-4---4-5-7-----------2------------5------5-4---|
A|-----------------------------5-----------------2------------3----------5-|
E|--000-000------000-000-----------------000-000------000-000--------------|
    ... ...      ... ...                 ... ...      ... ...
e|-------------------------------------------------------------------------|
B|-------------------------------------------------------------------------|
G|-------------------------------------4---------4------------7------------|
D|-------------------------5-4---4-5-7-----------2------------5------5-4---|
A|-----------------------------5-----------------2------------3----------5-|
E|--000-000------000-000-----------------000-000------000-000--------------|
    ... ...      ... ...                 ... ...      ... ...  

Riff    00.47-01.04
e|-------------------------------------------------------------------------|
B|-------------------------------------------------------------------------|
G|-------------------------------------------------------------------------|
D|-------------------------------------------------------------------------|
A|-------------------------------------------------------------------------|
E|-------------------------------------------------------------------------|

             not done yet    

Added On December 16th, 2013

SHARE

Comments

blog comments powered by Disqus

VERSIONS

ADVERTISEMENT