In This Moment Tabs

Beautiful Tragedy Intro

2 versions

TAB

            listen the song to catch the rythm

1.Intro Clean: Guitar I
|------------------------------------------------------------------|
|-8---------------10------------10----8----8------8-------8--------|
|---11-----x10-------11-----x5-----11---11---11-----11------11-----|
|------12---------------12----------------------12-----12------12--| X2
|------------------------------------------------------------------|
|------------------------------------------------------------------|


2.Distortion: Guitar I & II
|----------------------|
|----------------------|
|----------------------|
|-10------2-----0------|
|-10-x10--2-x10-0-x10--|
|-10------2-----0------|    

Added On December 16th, 2013

SHARE

Comments

blog comments powered by Disqus

VERSIONS

ADVERTISEMENT