In This Moment Tabs

Next Life

1 versions

TAB

            Gtr.1 only 0:00-0:09
|---------------------------------------------------------------------|
|---------------------------------------------------------------------|
|---------------------------------------------------------------------|
|---------------------------------------------------------------------|
|--5-----3-----6-----5-----6p5-----5-----3-----6-----5-----3333-1111--|
|----0-0---0-0---0-0---0-0-----0-0---0-0---0-0---0-0---0-0-3333-1111--|
     x x   x x   x x   x x     x x   x x   x x   x x   x x xxxx xxxx

|---------------------------------------------------------------------|
|---------------------------------------------------------------------|
|---------------------------------------------------------------------|
|---------------------------------------------------------------------|
|--5-----3-----6-----5-----6p5-----5-----3-----6-----5-----3333-1111--|
|----0-0---0-0---0-0---0-0-----0-0---0-0---0-0---0-0---0-0-3333-1111--|
     x x   x x   x x   x x     x x   x x   x x   x x   x x xxxx xxxx

Gtr.1 0:10-0:19
|---------------------------------------------------------------------|
|---------------------------------------------------------------------|
|---------------------------------------------------------------------|
|---------------------------------------------------------------------|
|--5-----3-----6-----5-----6p5-----5-----3-----6-----5-----3333-1111--|
|----0-0---0-0---0-0---0-0-----0-0---0-0---0-0---0-0---0-0-3333-1111--|
     x x   x x   x x   x x     x x   x x   x x   x x   x x xxxx xxxx

|---------------------------------------------------------------------|
|---------------------------------------------------------------------|
|---------------------------------------------------------------------|
|---------------------------------------------------------------------|
|--5-----3-----6-----5-----6p5-----5-----3-----6-----5-----3333-1111--|
|----0-0---0-0---0-0---0-0-----0-0---0-0---0-0---0-0---0-0-3333-1111--|
     x x   x x   x x   x x     x x   x x   x x   x x   x x xxxx xxxx

Gtr.2 0:10-0:19
|---------------------------------------------------------------------|
|---------------------------------------------------------------------|
|---------------------------------------------------------------------|
|--5-----3-----6-----5----6p5------5-----3-----6-----5----------------|
|----------------------------------------------------------3333-1111--|
|----0-0---0-0---0-0---0-0-----0-0---0-0---0-0---0-0---0-0-3333-1111--|
     x x   x x   x x   x x     x x   x x   x x   x x   x x xxxx xxxx

|---------------------------------------------------------------------|
|---------------------------------------------------------------------|
|---------------------------------------------------------------------|
|--5-----3-----6-----5----6p5------5-----3-----6-----5----------------|
|----------------------------------------------------------3333-1111--|
|----0-0---0-0---0-0---0-0-----0-0---0-0---0-0---0-0---0-0-3333-1111--|
     x x   x x   x x   x x     x x   x x   x x   x x   x x xxxx xxxx

Gtr.1 & 2 0:19-0:22
|-----------------------------------------------------|
|-----------------------------------------------------|
|-----------------------------------------------------|
|-----------------------------------------------------|
|-3333-1111-3333-4444-3333-1111-----------------------|
|-3333-1111-3333-4444-3333-1111-----------------------|    

Added On December 16th, 2013

SHARE

Comments

blog comments powered by Disqus

ADVERTISEMENT