Incubus Tabs

Defiance

1 versions

TAB

            -------------------------------------------------------------------------------
			     Defiance - Incubus
-------------------------------------------------------------------------------
Tabbed by: jmo74
Email: jdm0423@gmail.com

Tuning: Drop C#


   Main Riff:

e|--5-5---7-7---14------14------5-5---7-7---0h2-2-5h2-2--|
B|--6-6-X-8-8-X-15----X-15-X----6-6-X-8-8-X-3---3-3---3--|
G|--5-5-X-7-7-X-14----X-14-X----5-5-X-7-7-X-2---2-2---2--|
D|--0-0-X-0-0-X--0----X--0-X----0-0-X-0-0-X-0---0-0---0--|
A|--0-0-X-0-0-X--0----X--0-X----0-0-X-0-0-X-0---0-0---0--|
E|--0-0---0-0----0-------0------0-0---0-0---0---0-0---0--|

    Verse:

e|-------------------------------------------------|
B|-3-3-X-------3-3-X-------------------------------|
G|-2-2-X-2-2-2-2-2-X-0-0-0-------------------------|
D|-0-0-X-2-2-2-0-0-X-0-0-0-4---4-4-4-4-4---4-4-4-4-|
A|-0-0-X-0-0-0-0-0-X-2-2-2-0---0-0-0-0-0---0-0-0-0-|
E|-------------------------0---0-0-0-0-0---0-0-0-0-|

e|-------------------------------------|
B|-3-3-X-------3-3-X---3-3-3---3-3-3-3-|
G|-2-2-X-2-2-2-2-2-X-0-0-0-0---0-0-0-0-|
D|-0-0-X-2-2-2-0-0-X-0-0-X-X---X-X-X-X-|
A|-0-0-X-0-0-0-0-0-X-2-0-2-3---3-3-3-3-|
E|-------------------------------------|

     Prechorus:

e|-------0-------0--0-0-0-0--------0------------------|
B|-------0--0----1--1-1-1-1--------0--0--2---2-2-2-2--|
G|-------0--0----0--0-0-0-0--------0--0--2---2-2-2-2--|
D|-2--2-----2-2--2--2-2-2-2--2--2-----2--2---2-2-2-2--|
A|-2--2-----2-2--3--3-3-3-3--2--2-----2--0---0-0-0-0--|
E|-2--2-------2--------------2--2---------------------|

     Chorus:

e|--2--2-2-2-2-3--3-3-3-3----------3--3-3-3-3-------------------|
B|--3--3-3-3-3-3--3-3-3-3-3--3--3--3--3-3-3-3-3--3--3--3--3--3--|
G|--2--2-2-2-2-0--0-0-0-0-0--0--0--0--0-0-0-0-0--0--0--0--0--0--|
D|--0--0-0-0-0-0--0-0-0-0-X--X--X--0--0-0-0-0-X--X--X--0--X--X--|
A|--0--0-0-0-0-X--X-X-X-X-2--3--2--X--X-X-X-X-2--3--2--X--2--3--|
E|--0--0-0-0-0-5--5-5-5-5----------5--5-5-5-5----------5--------|



************************************

| /   slide up
| \   slide down
| h   hammer-on
| p   pull-off
| ~   vibrato
| +   harmonic
| x   Mute note
| b   Bend
| pb  Pre-bend
| br  Bend release
| pbr Pre-bend release
| brb Bend release bend

************************************    

Added On December 16th, 2013

SHARE

Comments

blog comments powered by Disqus

ADVERTISEMENT