Incubus Tabs

Tomorrows Food

1 versions

TAB

            Incubus
Tomorrow's Food
If Not Now, When?

Intro/Verse

e|--------------------|
B|---0-------0--------|
G|-----7-------7------| X 8
D|---------0----------|
A|---5---5------------|
E|--------------------|

e|---------------------------------------------------------|
B|---0----0----0--------0----0-------0----0--------0-------|
G|-----7----9----14------14----14------14---14------14-----|
D|--------------------0------------0-------------0---------|
A|---5----7----12--12--------12--12-------12--12-----------|
E|---------------------------------------------------------|

e|-------------------------------------------------------------|
B|---0----0----0----0-------0---0-------0----0-------0---------|
G|-----7----9----14---11-----11---11------11---11-----11-------|   X2
D|------------------------0-----------0------------0-----------|
A|---5----7----12---9----9------9----9-------9----9------------|
E|-------------------------------------------------------------|

Chorus
e|-------------------2-----3p2-----2---|
B|---------------------3------3---3----|
G|---4---3------0h2-----2------2-------| X2
D|-----0---0---0---0------------0------|
A|---5---5-----------------------------|
E|-------------------------------------|

e|-------------------------------------0---------|
B|--------------------------------------0--------|
G|--4---3---3---2---2---1----1----1------1--1----|
D|----0---0---0---0---0--- 2---2----2---------2--|
A|--5---5---4---4---3---3------------------------|
E|-------------------------0-----0---0-----0-----|

Ending

e|--17p12---------12------|
B|--------15---15---------|
G|----------14------------|
D|------------------------|
A|------------------------|
E|------------------------|    

Added On December 16th, 2013

SHARE

Comments

blog comments powered by Disqus

ADVERTISEMENT