Ingrid Michaelson Tabs

The Way I Am

9 versions

TAB

            this is sweet song, my brother just got married and,
this was there first dance
congrats james!

>the song is mostly bass in the beginning.
>when the chords start you don't have to play X'S its just to make the 
maraca sound or whatever it is
>there are fills i havent just got yet i will try and get them

intro/1st verse
E -----------------------------------------------------------|
B -----------------------------------------------------------|
G -----------------------------------------------------------|
D ----------0-0----------------------------------------------|
A -----1-1------3-3------------------------------------------|
E -1-1-------------------------------------------------------|

1st chorus
E -----------------------------------------------------------|
B -----------------------------------------------------------|
G -----------------------------------------------------------|
D --------------0-0------------------------------------------|
A -1-1--3-3---------1-1--3-----------------------------------|
E ----------1-1--------------1-1--1-1------------------------|


2nd verse
E -------------------1-x-1-x---------------------------------|
B ----------------x--3-x-3-x--1-x-1-x------------------------|
G ----------3-x-3-x--2-x-2-x--x-x-x-x------------------------|
D -3-x-3-x--3-x-3-x--0-x-0-x--2-x-2-x------------------------|
A -3-x-3-x--1-x-1-x-----------3-x-3-x------------------------|
E -1-x-1-x---------------------------------------------------|

2nd chorus
E ----------------------------1-x-1-x------------------------|
B ----------1-x-1-x-----------3-x-3-x-----------1------------|
G -3-x-3-x--x-x-x-x-----------2-x-2-x--3-x-3-x--x------------|
D -3-x-3-x--2-x-2-x--3-x-3-x--0-x-0-x--3-x-3-x--2---3-3--3-3-|
A -1-x-1-x--3-x-3-x--3-x-3-x-----------1-x-1-x--3---3-3--3-3-|
E -------------------1-x-1-x------------------------1-1--1-1-|

the rest just repeats you can figure it out    

Added On December 16th, 2013

SHARE

Comments

blog comments powered by Disqus