Into Eternity Tabs

Beginning Of The End

2 versions

TAB

            --------------------------------------------------|
--------------------------------------------------|
--------------------------------------------------|
--------------------------------------------------|
-0-0-0-0-0-0-0-0-0-------0-0-0-0-0-0-0-0-0--------|
-0-0-0-0-0-0-0-0-0-------0-0-0-0-0-0-0-0-0--------|
Palm mute all open strings
repeat many times as necessary


------------------------------------------------------------|
------------------------------------------------------------|
------------------------------------------------------------|
-----------------7-------------------8-------------------7--|
-0-0-0-0-0-0-0-0-7---0-0-0-0-0-0-0-0-8---0-0-0-0-0-0-0-0-7--|
-0-0-0-0-0-0-0-0-7---0-0-0-0-0-0-0-0-8---0-0-0-0-0-0-0-0-7--|

------------------------------------------------------------|
------------------------------------------------------------|
------------------------------------------------------------|
------------------------------------------------------------|
------------------------------------------------------------|
-7-7-8-8-11-11-8-8-7-7-8------------------------------------|
palm mute

------------------------------------------------------------|
------------------------------------------------------------|
-----------------7-------------------8-------------------7--|
-----------------7-------------------8-------------------7--|
-0-0-0-0-0-0-0-0-5---0-0-0-0-0-0-0-0-6---0-0-0-0-0-0-0-0-5--|
-0-0-0-0-0-0-0-0-----0-0-0-0-0-0-0-0-----0-0-0-0-0-0-0-0----|

------------------------------------------------------------|
------------------------------------------------------------|
------------------------------------------------------------|
------------------------------------------------------------|
------------------------------------------------------------|
-7-7-8-8-11-11-8-8-7-7-8------------------------------------|
palm mute

--------------------------------------------------|
--------------------------------------------------|
--------------------------------------------------|
--------------------------------------------------|
-0-0-0-0-0-0-0-0-0-------0-0-0-0-0-0-0-0-0--------|
-0-0-0-0-0-0-0-0-0-------0-0-0-0-0-0-0-0-0--------|

------------------------------------------------------------|
--------8-7---7---------------------------------------------|
-----11-----9-----------------------------------------------|
---9------------------9-------------------------------------|
-7------------------9---9----9-10---------------------------|
------------------9-------10--------------------------------|

--------------------------------------------------------------|
--------8-10-8------------------------------------------------|
-----11--------10---------------------------------------------|
---9------------------9---------------------------------------|
-7------------------9---9----9--------------------------------|
------------------9-------10---11-----------------------------|

i aint good enough for the solo so yur gonna have to deal    

Added On December 16th, 2013

SHARE

Comments

blog comments powered by Disqus

VERSIONS

ADVERTISEMENT