INXS Tabs

Spy Of Love

1 versions

TAB

            Intro:
G


G
Have you noticed to this day
How many times you've prayed and played
Lifting lovers up and down
It gets around in this old town

1 st Melody:
G|---------------|-------------4---|----------------|----------4----|
D|--5-----3------|--5-----3--------|--5--3------3---|-5----3--------|
A|-----------5---|-----------5-----|-------5--5---5-|---------5-----|
E|---------------|-----------------|----------------|---------------|


G
Sleight of hand and sleight of mouth
A dirty trick to catch me out
I don't mind but what I say
Use that magic for better days

2nd meloby:
G|---------------| ------------4---|
D|-5--3------3---| --5-----3-------|
A|------5--5---5-|------------5----|
E|---------------| ----------------|


Chorus:
F#                 B              C#
     Standing above this moment
F#                 B              C#
     Listening to all I say
F#                 B              C#
     The spy of love will track me
F#                 B       C#
                      Will catch me


Through the window I see a face
That dirty face that speaks with sorrow
You listen to the walls for clues
And stand in shadows protecting you

3rd melody:
G|--------------|----------------4-|
D|--5-----3-----|--5-----3---------|
A|------------5-|------------5-----|
E|--------------|------------------|


Chorus:
Standing above this moment
Listening to all I say
The spy of love will track me
Will catch me


Bridge:
G (12 times) - in the original it sounds with bass, effects and drums, so it's up to you 
how to play :)
F#     F# E (4 times) - it would be better to play by power chords with 8th notes :)


(plays 1st melody 2 times):
Have you noticed to this day
How many times you've prayed and played
Lifting lovers up and down
It gets around in this old town


Chorus:
Standing above this moment
Listening to all I say
The spy of love will track me
Will catch me

The song fades on G    

Added On December 16th, 2013

SHARE

Comments

blog comments powered by Disqus

ADVERTISEMENT