Iration Tabs

Dream

1 versions

TAB

            Artist: Iration
Song: Dream
Tabbed By: ajjones639@yahoo.com
tuning: standard





|-5-----4------7------|
|-5-----5------7------|
|-7-----6------9------|   { This is played thought that song}
|-7-(x4)-6-(x4)--9 ---|
|-5-----4------7------|
|-x-----x------x------|

this is played over some of part one

|--------------------7-9/12\9-7-7h9p7------------ 7-9/12\9-7-7h9p7--------------|
| 10/11\10-7--7-7-9-10----------------7--7-7-9-10- ----------------7-5/7-5/7-8--|
|-------------------------------------------------------------------------------|
|-------------------------------------------------------------------------------|
|-------------------------------------------------------------------------------|
|-------------------------------------------------------------------------------|

|------------------------------------------------------------|
|-----------------------------------------5---3--3-2h3p2-----|
|-2h4p2-4\6/4-1--2h4p2-4\6/4-1--2h4p2-4\6/4------------------|
|------------------------------------------------------------|
|------------------------------------------------------------|
|------------------------------------------------------------|
|------------------------------------------------------------|    

Added On December 16th, 2013

SHARE

Comments

blog comments powered by Disqus

ADVERTISEMENT