Iron And Wine Tabs

Such Great Heights

4 versions

TAB

            Before starting on tabs please read this first.
(If you are in a rush the tabs are on the bottom*)

Capo on whichever fret works for your voice.
-when you pick it's easier if you hold your fingers the way the chords are.

The pattern the chords are played in the song:
C, G, F, C, G   and repeated over and over

Practice singing and just playing chords (not picking!) to the song so you can understand the rythym
before attempting to pick.

Lyrics with the chord transitions
______________________________

Verses (Use tabs!)
C
I am thinking it's a

G
sign that the freckles in our

F
eyes are mirror images and

C
when we kiss they're

G
perfectly aligned
_____________________________

C
though I have to specul...

G
-ate that God himself did

F
make us into corresponding

C
shapes like puzzle

G
pieces from the clay
____________________________ (see the reocurring pattern yet? ...CGFCG!!!)

C
true, it may seem like a

G
stretch, but its thoughts like this that

F
catch my troubled head when you're a..

C
-way and I am

G
missing you to death
__________________________________

C
when you are out there on the

G
road for several weeks of

F
shows and when you scan the radi...

C
-o, I hope this

G
 song will guide you home
_________________________________

CHORUS (STRUM!!)

C
they will see us waving from such

G
 great heights, 'come do..

F
wn now,'
C
they'll say..
G
-ay

but

C
everything looks perfect from

G
far away, 'come do...

F
-wn now,' but

C
we'll stay..

G
-ay..

End of Chorus
_________________________________
(Back to verses) Let's see if you've got the transitions down. (I'm too lazy to do the rest)

I tried my best to leave this all on your

machine but the persistent beat it sounded

thin upon listening
_________________________________

that frankly will not fly. you will hear

the shrillest highs and lowest lows with

the windows down when this is guiding you home

________End of Lyrics portion. Now to the verse tabs!________

Use picking tabs for the verses and
 just strum the chords for the chorus.

C Major Chord picking
----------------0--------------------------------0-------------------|
---1------------1----1-------------1-------------1------1------------|
--------0------------0--------0--------0----------------0--------0---|
------------2--------------2-----------------2----------------2------|
---3-------------------------------3-----------------3---------------|
---------------------------------------------------------------------|


G chord
-------------------------3----------------3------------------0---------|
----0--------------------0-------0--------0-------0----------0---------|
---------0-----------------------0----------------0-----------------0--|
--------------0--------------------------------------------------------|
--------------0--h--2----------------0-------------------0-------------|
----3-------------------------0----------------0-----------------0-----|


F Chord
----------------1-------------1------------1-----1---------|
---1------------1-----1-------1-----1------1-----1------1--|
--------2-------------2-------------2-------------------2--|
-----------------------------------------------------------|
------------3--------------3------------3------------3-----|
---1----------------1------------1-------------1-----------|

C chord
----------------------0-----------------------------------------|
--1-------------------1----------1------------------------------|
------0----0---------------------0------------------------------|
-----------0---h---2--------------------------------------------|
--3--------3------------------3---------------------------------|
----------------------------------------------------------------|

G chord
----------------------------3----------------------------------------|
---0------------------------0----------0-----------------------------|
--------0------------------------------0-----------------------------|
-------------0-------------------------------------------------------|
-------------0---h---2-----------------------------------------------|
---3------------------------------3----------------------------------|


This is my first tab online!!! Yay
it took long.
hope it worked for you.

Stefanie Montano    

Added On December 16th, 2013

SHARE

Comments

blog comments powered by Disqus

VERSIONS

ADVERTISEMENT