iron butterfly Tabs

In The Garden Of Eden

1 versions

TAB

            This is the real name for In a Gadda Da Vita, but the band, being so high, sang In a 
da Vita. this song happens to have minor distortion.


E|--------------------|
B|--------------------|
G|--------------------|
D|--------------------| 7x
A|0-0-3-2-----7-6-5--3|
e|--------3-5---------|

E|-------------------------------|
B|-------------------------------|
G|-------------------------------|
D|0---------6-7-6-7-8-7-6-7-6----|
A|--7-8-7-8-------------------7-8|
e|-------------------------------|

That's about as far as I've gotten...    

Added On December 16th, 2013

SHARE

Comments

blog comments powered by Disqus

ADVERTISEMENT