iron butterfly Tabs

Termination

1 versions

TAB

            Iron Butterfly-Termination
Tabbed By:John-Lennon
Tuning:Standard
Intro/Riff/Verse:
E----------------|
B----------------|
G--------------3r|
D-5-3-5-3-3-4-5--|
A----------------| Play 7x
E----------------|

Bridge:
E------------|
B------------|
G------------|
D-7-5-5-5-5-7|
A----7-7-7---| play 2x
E------------|

Solo1:
E--------7-10-7-10-7------------------------|
B----7-10-----------10-7-10-7-10-7----------|
G-7-9-----------------------------9-7-7-9-7r|
D------------------------------------9------|
A-------------------------------------------|
E-------------------------------------------|

Solo2:
E----------------10-13-10-13-10--------------------------|
B-----------10-13--------------13-10-13-10---------------|
G---10-12-10------------------------------12-10-10-12-10r|
D-12-------------------------------------------9---------|
A--------------------------------------------------------|
E--------------------------------------------------------|

Then return to the bridge and do solo1 and Solo2 again then return to the riff
really fantastic song have a listen to the song to get the feel and have Fun!    

Added On December 16th, 2013

SHARE

Comments

blog comments powered by Disqus

ADVERTISEMENT