Isis Tabs

Gentle Time

1 versions

TAB

            -------------------------------------------------------------------------------
                                               GENTLE TIME - ISIS
-------------------------------------------------------------------------------
Tabbed by: Francesco Rago
E-mail: 18.francesco@gmail.com

Tuning: BF#BEG#B

Intro : 
B|-------------------------------------------------------------|
G#|------------------------------------------------------------|
E|-------------------------------------------------------------|
B|-------------------------------------------------------------|
F#|------------------------------------------------------------|
B|---------8--8--7--8--7--8--5--5--5/7-------------------------|


Repeat this riff until 1:35 
B|-------------------------------------------------------------|
G#|------------------------------------------------------------|
E|-------------------------------------------------------------|
B|---------------7-7-7-5/7-7-7-8--8-7-8-7-8-5-5-5/7------------|
F#|--------------7-7-7-5/7-7-7-8--8-7-8-7-8-5-5-5/7------------|
B|---------------7-7-7-5/7-7-7-8--8-7-8-7-8-5-5-5/7------------|


Repeat this until 3:36 (Aaron Turner plays some ''licks'' during this riff but I 
couldn't figure them out)
B|-------------------------------------------------------------|
G#|--------------------4---------------------------------------|
E|---------------------2---------------------------------------|
B|----------------------------------------3--------------------|
F#|---------------------------------------1--------------------|
B|------0--0--0--0 ----------0--0--0---------------------------|
        pm pm pm pm          pm pm pm


Let ring the last chord before going into the 3 guitars wall of riffs
B|--------------------------------------------------------------|
G#|-------------------------------------------------------------|
E|--------------------------------------------------------------|
B|----------1-------1-------------------------------------------|
F#|---------1-------1-------------------------------------------|
B|------0---1---0---1-------------------------------------------|


Gallagher and Meyer play this riff
B|--------------------------------------------------------------|
G#|-------------------------------------------------------------|
E|------------3-2-2-2-2-2-2-2-3-2-2-2-2-2-2-2-------------------|
B|------------1-0-0-0-0-0-0-0-1-0-0-0-0-0-0-0-------------------|
F#|-------------------------------------------------------------|
B|--------------------------------------------------------------|


while Turner repeat this 
B|--------------------------------------------------------------|
G#|-------------------------------------------------------------|
E|--------8-7-7-7-7-7-7-7-8-7-7-7-7-7-7-7-----------------------|
B|--------8-7-7-7-7-7-7-7-8-7-7-7-7-7-7-7-----------------------|
F#|-------6-5-5-5-5-5-5-5-6-5-5-5-5-5-5-5-----------------------|
B|--------------------------------------------------------------|


Gallagher lead lick played at 5:09
B|--------------------------------------------------------------|
G#|----16-15-15-15-15-15-15-15-15-15-16-15-15-15-15-15-15-13----|
E|--------------------------------------------------------------|
B|--------------------------------------------------------------|
F#|-------------------------------------------------------------|
B|--------------------------------------------------------------|

B|--------------------------------------------------------------|
G#|-------16-15-15-15-15-15-15-15-15-15-16-15-15-15-15-15-15----|
E|-----------------------------------------------------------17-|
B|--------------------------------------------------------------|
F#|-------------------------------------------------------------|
B|--------------------------------------------------------------|


this is the riff that kicks in at 5:30 and it's repeated until the end of the song 
B|------------------------------------------------------------------------|
G#|-----------------------------------------------------------------------|  
E|----8/7-7-7-7-7-7-7---8/7-7-7-7-7-7-7---8/7-7-7-7-7-7-7---3-3-3--6-6-6--|  
B|----8/7-7-7-7-7-7-7---8/7-7-7-7-7-7-7---8/7-7-7-7-7-7-7---3-3-3--6-6-6--|  
F#|---6/5-5-5-5-5-5-5---6/5-5-5-5-5-5-5---6/5-5-5-5-5-5-5---1-1-1--4-4-4--| 
B|------------------------------------------------------------------------|

B|------------------------------------------------------------------------|
G#|-----------------------------------------------------------------------|  
E|--8/7-7-7-7-7-7-7---8/7-7-7-7-7-7-7---8/7-7-7-7-7-7-7---3-3-3--6-6-6--7-|  
B|--8/7-7-7-7-7-7-7---8/7-7-7-7-7-7-7---8/7-7-7-7-7-7-7---3-3-3--6-6-6--7-|  
F#|-6/5-5-5-5-5-5-5---6/5-5-5-5-5-5-5---6/5-5-5-5-5-5-5---1-1-1--4-4-4--5-| 
B|------------------------------------------------------------------------|


************************************

| /   slide up
| \   slide down
| h   hammer-on
| p   pull-off
| ~   vibrato
| +   harmonic
| x   Mute note
| b   Bend
| pb  Pre-bend
| br  Bend release
| pbr Pre-bend release
| brb Bend release bend

************************************    

Added On December 16th, 2013

SHARE

Comments

blog comments powered by Disqus

ADVERTISEMENT