Isla Cameron Tabs

O Willow Waly

1 versions

TAB

            Saw that no one did any tabs for this yet so I did tabs by ear.

It's not Kingston Trio, but it's just as good. Hope it helps. ;)

o Willow Waly as sung by Isla Cameron
60's film "The Innocents"
Tabs by Catrina J

Standard Tuning

e ||--3-4-3-6-4-3-------------------------3-4-3-8-6-4-3---------------------------|
B ||-----------------4-6--6-6-4-6-8--1---------------------4-6--6-6-4-3-1---------|
G ||------------------------------------------------------------------------------|
D ||------------------------------------------------------------------------------|
A ||------------------------------------------------------------------------------|
E ||------------------------------------------------------------------------------|

e ||-1-3-4--8-6-4-8--3------------------------------------------------------------|
B ||---------------------3-4-6-8-6-4-3-----1-3-4--1-6-4-3-1-----1-1-1-3-3-3-4-6-8-|
G ||------------------------------------------------------------------------------|
D ||------------------------------------------------------------------------------|
A ||------------------------------------------------------------------------------|
E ||------------------------------------------------------------------------------|

e ||--3-4-3-6-4-3-------------------------3-4-3-8-6-4-3---------1-4-3-------1-4-3-|
B ||-----------------4-6--6-6-4-6-8--1----------------------1-3---------1-3-------|
G ||------------------------------------------------------------------------------|
D ||------------------------------------------------------------------------------|
A ||------------------------------------------------------------------------------|
E ||------------------------------------------------------------------------------|    

Added On December 16th, 2013

SHARE

Comments

blog comments powered by Disqus

ADVERTISEMENT