Izzy Stradlin Tabs

Sweet Caress

2 versions

TAB

            Sweet Caress Tab by Izzy Stradlin


"ChopAway.com - The Online Home Of Izzy Stradlin"

Sweet Caress by Izzy Stradlin...

Tabbed (badly) by Brian Freyne, brian@freyne.com


Verse

    F#m                                            E
E||--2----2----2----2----|--2----2----2----2----|--0----0----0----0----|
B||--2----2----2----2----|--2----2----2----2----|--5----5----5----5----|
G||--2----2----2----2----|--2----2----2----2----|--4----4----4----4----|
D||--4----4----4----4----|--4----4----4----4----|--2----2----2----2----|
A||--4----4----4----4----|--4----4----4----4----|----------------------|
E||--2----2----2----2----|--2----2----2----2----|----------------------|


                         D (something sus2/4 I think)
--0----0----0----0----|--0----0----0----0----|--0----0----0----0----|
--5----5----5----5----|--3----3----3----3----|--5----5----5----5----|
--4----4----4----4----|--2----2----2----2----|--4----4----4----4----|
--2----2----2----2----|--0----0----0----0----|--2----2----2----2----|
----------------------|----------------------|----------------------|
----------------------|----------------------|----------------------|

--2----2----2----2----|------||
--2----2----2----2----|------||
--2----2----2----2----|------||
--4----4----4----4----|------||
--4----4----4----4----|------||
--2----2----2----2----|------||

The chorus is

	D(thingy), F#M x3
	E, D, E, F#m    

Added On December 4th, 2013

SHARE

Comments

blog comments powered by Disqus

VERSIONS

ADVERTISEMENT