J R Richards Tabs

Red Painted Walls

1 versions

TAB

            This is all I could Figure out but it sounds right, so enjoy!

            J. R. Richards
               Red Painted Walls
CAPO 2nd Fret

e|------------0----------------------0------------------|
B|----------8---8------------------7---7----------------|
G|--------9----------------------7----------------------|
D|------------------------------------------------------|
A|---7-----------------------5--------------------------|
E|----0-----------------------0-------------------------|


    (Shaped like G chord)      (Shaped Like D chord)
e|-------------3--------------------------2-------------|
B|-----------3---3----------------------3---3-----------|
G|---------0--------------------------2-----------------|
D|------------------------------------------------------|
A|----2--------------------------0----------------------|
E|-----3--------------------------0---------------------|


http://jrrichardsmusic.com/index.html    

Added On December 16th, 2013

SHARE

Comments

blog comments powered by Disqus

ADVERTISEMENT