Jackyl Tabs

Lumberjack

3 versions

TAB

            Lumberjack Tab by Jackyl


VERSE 1 E----------------------------------------     VERSE 1-|
        B-----------------------------------------------------|
        G-----------------------------------------------------|
        D-----------------------------------------------------|
        A----5----5----7----7----5--5--7--5--7----------------|
        E----3----3----3----3----3--3--3--3--3 PLAY-----------| 3X

E------------------------------------------|
B------------------------------------------|
G------------------------------------------|
D---5----5----7----7----5--5--7--5--7------|
A---3----3----3----3----3--3--3--3--3------|
E------------------------------------------|  PLAY 3X AND GO BACK TO FIRST ONE    

Added On December 4th, 2013

SHARE

Comments

blog comments powered by Disqus

VERSIONS

ADVERTISEMENT