Jackyl Tabs

Push Comes To Shove

1 versions

TAB

            This is pretty much the only song i like by Jackyl, but its really
good. I'm pretty sure this is right but please comment if you have
corrections. Enjoy.

Also, in the very last chorus before the solo, the chords go
G, F, A#, C.... i think. Again: Enjoy.

  > = Slide

Intro/Verse

e---------------------|
B---------------------|
G---------------------|
D-----------3->-5-5---|
A--3->-5-5--1->-3-3---|
E--1->-3-3------------|


Chorus/Rythym for Solo

   G    F    C    G
e--3----1----x----3-------|
B--3----1----5----3-------|
G--4----2----5----4-------|
D--5----3----5----5-------|
A--5----3----3----5-------|
E--3----1----x----3-------|    

Added On December 16th, 2013

SHARE

Comments

blog comments powered by Disqus

ADVERTISEMENT