Jadon Lavik Tabs

Amazing Grace

1 versions

TAB

            INTRO
e--------x-----x--------x------x---7-----------------------------------------------|
b------8-x-8-8-x-----8--x--8-8-x----9--------------7------------3-3-3-3------3-3-3-|
g------9-x-9-9-x-----8--x--8-8-x-----7------------6------------5------------5------|
d------9-x-9-9-x-----7--x--7-7-x------7----------5------------5------------4-------|
a--------x-----x--------x------x-------7--7-----0------------0------------0--------|
e---8----x-----x--8-----x------x---------7-----6------------5------------4---------|

amazing grace…
e--------x-----x-------x---------x---------x-----x--------x------x--------x-----x--|
b—-----3-x-3-3-x----10-x--10--10-x------8--x-8-8-x------8-x--8-8-x------3-x-3-3-x--|
g------4-x-4-4-x----10-x--10--10-x------9--x-9-9-x------8-x--8-8-x------2-x-2-2-x--|
d------4-x-4-4-x----9--x--9---9--x------9--x-9-9-x------7-x--7-7-x------4-x-4-4-x--|
a--------x-----x-------x---------x---------x-----x--------x------x---2----x-----x--|
e---3----x-----x-10----x---------x--8------x-----x---8----x------x--------x-----x--|

e--------x-----x-----------------------------------------x-----x--------x-----x----|
b—-----6-x-6-6-x-------8----------10--------12~~~------5-x-5-5-x------7-x-7-7-x----|
g------5-x-5-5-x---------------------------------------5-x-5-5-x------5-x-5-5-x----|
d------7-x-7-7-x-------9----------10--------12~~~------5-x-5-5-x------7-x-7-7-x----|
a---5----x-----x---5/7------7/9---------9/11-----------7-x-7-7-x---5----x-----x----|
e--------x-----x------------------------------------5----x-----x--------x-----x----|

e--------x-----x--------x----x-----------------------------------------------------|
b—-----7-x-7-7-x-----6--x-5--x------5---7-------8--------8-------------------------|
g------8-x-8-8-x-----7--x-7--x-----5----7------9--------9--------------------------|
d------7-x-7-7-x-----6--x-6--x----5----7------9--------10--------------------------|
a------9-x-9-9-x--7-----x-7--x---7----9--------------------------------------------|
e---7----x-----x--------x----x--5----7------8---------10----------ENJOY-(:---------|    

Added On December 16th, 2013

SHARE

Comments

blog comments powered by Disqus

ADVERTISEMENT