James Blunt Tabs

Shine On

4 versions

TAB

            Capo on 7th fret

Standard Tuning. The tab is relative to the capo position.
There doesn't seem to be any tabs out there for this awesome song. It's not perfect, but 
close enough. I hope you enjoy!

Intro/Verses:


e|----------0------------------0----------------------0------------0----------|
B|-------1-----1------------1-----1----------------1------------1-------------|
G|-------—--------------------------------------------------------------------|
D|----2------------------2-----------------------------------2----------------|
A|-3------------------3------------------3--2--0----------0-------------------|
E|----------------------------------------------------------------------------|


e|----------------0---------------------0-------------0-----------------0-----|
B|-------------1---------------------1-------------1-----1-----------1-----1--|
G|----------------------------------------------------------------------------|
D|----------------------------------------------2-----------------2-----------|
A|-------------------------------------------3-----------------3--------------|
E|-3--2--0--0------------0--2--3--3-------------------------------------------|


Chorus:
     Cadd9      C                       G?        G
e|--0-0-0-0--0-0-0-0----------|   e|--3-3-3-3--3-3-3-3----------|
B|--3-3-3-3--1-1-1-1----------|   B|--1-1-1-1--0-0-0-0----------|
G|--0-0-0-0--0-0-0-0--repeat--|   G|--0-0-0-0--0-0-0-0--repeat--|
D|--2-2-2-2--2-2-2-2----------|   D|--0-0-0-0--0-0-0-0----------|
A|--3-3-3-3--3-3-3-3----------|   A|--2-2-2-2--2-2-2-2----------|
E|--X-X-X-X--X-X-X-X----------|   E|--3-3-3-3--3-3-3-3----------|


Are they calling for our last dance
I see it in your eyes. In your eyes
Same old moves for a new romance
I could use the same old lies, but I'll sing

Shine on. Just shine on
Close your eyes and they'll all be gone
They can scream and shout that they've been sold out
But it paid for the cloud that we're dancing on
So shine on. Just shine on
With your smile just as bright as the sun
'Cause they're all just slaves to the gods they made
But you and I just shone
Just shone

And when silence greets my last goodbye
The words I need are in your eyes, and I'll sing

Shine on. Just shine on
Close your eyes and they'll all be gone
They can scream and shout that they've been sold out
But it paid for the cloud that we're dancing on
So shine on. Just shine on
With your smile just as bright as the sun
'Cause they're all just slaves to the gods they made
But you and I just shone
Just shone    

Added On December 16th, 2013

SHARE

Comments

blog comments powered by Disqus

VERSIONS

ADVERTISEMENT